  0
SECTION
  2
HEADER
  9
$ACADVER
  1
AC1032
  9
$ACADMAINTVER
 90
      228
  9
$DWGCODEPAGE
  3
ANSI_1252
  9
$REQUIREDVERSIONS
160
                 0
  9
$INSBASE
 10
0.0
 20
0.0
 30
0.0
  9
$EXTMIN
 10
1.000000000000000E+20
 20
1.000000000000000E+20
 30
1.000000000000000E+20
  9
$EXTMAX
 10
-1.000000000000000E+20
 20
-1.000000000000000E+20
 30
-1.000000000000000E+20
  9
$LIMMIN
 10
0.0
 20
0.0
  9
$LIMMAX
 10
12.0
 20
9.0
  9
$ORTHOMODE
 70
     0
  9
$REGENMODE
 70
     1
  9
$FILLMODE
 70
     1
  9
$QTEXTMODE
 70
     0
  9
$MIRRTEXT
 70
     0
  9
$LTSCALE
 40
1.0
  9
$ATTMODE
 70
     1
  9
$TEXTSIZE
 40
0.2
  9
$TRACEWID
 40
0.05
  9
$TEXTSTYLE
  7
Standard
  9
$CLAYER
  8
0
  9
$CELTYPE
  6
ByLayer
  9
$CECOLOR
 62
   256
  9
$CELTSCALE
 40
1.0
  9
$DISPSILH
 70
     0
  9
$DIMSCALE
 40
1.0
  9
$DIMASZ
 40
0.18
  9
$DIMEXO
 40
0.0625
  9
$DIMDLI
 40
0.38
  9
$DIMRND
 40
0.0
  9
$DIMDLE
 40
0.0
  9
$DIMEXE
 40
0.18
  9
$DIMTP
 40
0.0
  9
$DIMTM
 40
0.0
  9
$DIMTXT
 40
0.18
  9
$DIMCEN
 40
0.09
  9
$DIMTSZ
 40
0.0
  9
$DIMTOL
 70
     0
  9
$DIMLIM
 70
     0
  9
$DIMTIH
 70
     1
  9
$DIMTOH
 70
     1
  9
$DIMSE1
 70
     0
  9
$DIMSE2
 70
     0
  9
$DIMTAD
 70
     0
  9
$DIMZIN
 70
     0
  9
$DIMBLK
  1

  9
$DIMASO
 70
     1
  9
$DIMSHO
 70
     1
  9
$DIMPOST
  1

  9
$DIMAPOST
  1

  9
$DIMALT
 70
     0
  9
$DIMALTD
 70
     2
  9
$DIMALTF
 40
25.4
  9
$DIMLFAC
 40
1.0
  9
$DIMTOFL
 70
     0
  9
$DIMTVP
 40
0.0
  9
$DIMTIX
 70
     0
  9
$DIMSOXD
 70
     0
  9
$DIMSAH
 70
     0
  9
$DIMBLK1
  1

  9
$DIMBLK2
  1

  9
$DIMSTYLE
  2
Standard
  9
$DIMCLRD
 70
     0
  9
$DIMCLRE
 70
     0
  9
$DIMCLRT
 70
     0
  9
$DIMTFAC
 40
1.0
  9
$DIMGAP
 40
0.09
  9
$DIMJUST
 70
     0
  9
$DIMSD1
 70
     0
  9
$DIMSD2
 70
     0
  9
$DIMTOLJ
 70
     1
  9
$DIMTZIN
 70
     0
  9
$DIMALTZ
 70
     0
  9
$DIMALTTZ
 70
     0
  9
$DIMUPT
 70
     0
  9
$DIMDEC
 70
     4
  9
$DIMTDEC
 70
     4
  9
$DIMALTU
 70
     2
  9
$DIMALTTD
 70
     2
  9
$DIMTXSTY
  7
Standard
  9
$DIMAUNIT
 70
     0
  9
$DIMADEC
 70
     0
  9
$DIMALTRND
 40
0.0
  9
$DIMAZIN
 70
     0
  9
$DIMDSEP
 70
    46
  9
$DIMATFIT
 70
     3
  9
$DIMFRAC
 70
     0
  9
$DIMLDRBLK
  1

  9
$DIMLUNIT
 70
     2
  9
$DIMLWD
 70
    -2
  9
$DIMLWE
 70
    -2
  9
$DIMTMOVE
 70
     0
  9
$DIMFXL
 40
1.0
  9
$DIMFXLON
 70
     0
  9
$DIMJOGANG
 40
0.7853981633974483
  9
$DIMTFILL
 70
     0
  9
$DIMTFILLCLR
 70
     0
  9
$DIMARCSYM
 70
     0
  9
$DIMLTYPE
  6

  9
$DIMLTEX1
  6

  9
$DIMLTEX2
  6

  9
$DIMTXTDIRECTION
 70
     0
  9
$LUNITS
 70
     2
  9
$LUPREC
 70
     4
  9
$SKETCHINC
 40
0.1
  9
$FILLETRAD
 40
0.0
  9
$AUNITS
 70
     0
  9
$AUPREC
 70
     0
  9
$MENU
  1
.
  9
$ELEVATION
 40
0.0
  9
$PELEVATION
 40
0.0
  9
$THICKNESS
 40
0.0
  9
$LIMCHECK
 70
     0
  9
$CHAMFERA
 40
0.0
  9
$CHAMFERB
 40
0.0
  9
$CHAMFERC
 40
0.0
  9
$CHAMFERD
 40
0.0
  9
$SKPOLY
 70
     0
  9
$TDCREATE
 40
2460256.438344908
  9
$TDUCREATE
 40
2460256.646678241
  9
$TDUPDATE
 40
2460256.438344908
  9
$TDUUPDATE
 40
2460256.646678241
  9
$TDINDWG
 40
0.0000000000
  9
$TDUSRTIMER
 40
0.0000000000
  9
$USRTIMER
 70
     1
  9
$ANGBASE
 50
0.0
  9
$ANGDIR
 70
     0
  9
$PDMODE
 70
     0
  9
$PDSIZE
 40
0.0
  9
$PLINEWID
 40
0.0
  9
$SPLFRAME
 70
     0
  9
$SPLINETYPE
 70
     6
  9
$SPLINESEGS
 70
     8
  9
$HANDSEED
  5
B3
  9
$SURFTAB1
 70
     6
  9
$SURFTAB2
 70
     6
  9
$SURFTYPE
 70
     6
  9
$SURFU
 70
     6
  9
$SURFV
 70
     6
  9
$UCSBASE
  2

  9
$UCSNAME
  2

  9
$UCSORG
 10
0.0
 20
0.0
 30
0.0
  9
$UCSXDIR
 10
1.0
 20
0.0
 30
0.0
  9
$UCSYDIR
 10
0.0
 20
1.0
 30
0.0
  9
$UCSORTHOREF
  2

  9
$UCSORTHOVIEW
 70
     0
  9
$UCSORGTOP
 10
0.0
 20
0.0
 30
0.0
  9
$UCSORGBOTTOM
 10
0.0
 20
0.0
 30
0.0
  9
$UCSORGLEFT
 10
0.0
 20
0.0
 30
0.0
  9
$UCSORGRIGHT
 10
0.0
 20
0.0
 30
0.0
  9
$UCSORGFRONT
 10
0.0
 20
0.0
 30
0.0
  9
$UCSORGBACK
 10
0.0
 20
0.0
 30
0.0
  9
$PUCSBASE
  2

  9
$PUCSNAME
  2

  9
$PUCSORG
 10
0.0
 20
0.0
 30
0.0
  9
$PUCSXDIR
 10
1.0
 20
0.0
 30
0.0
  9
$PUCSYDIR
 10
0.0
 20
1.0
 30
0.0
  9
$PUCSORTHOREF
  2

  9
$PUCSORTHOVIEW
 70
     0
  9
$PUCSORGTOP
 10
0.0
 20
0.0
 30
0.0
  9
$PUCSORGBOTTOM
 10
0.0
 20
0.0
 30
0.0
  9
$PUCSORGLEFT
 10
0.0
 20
0.0
 30
0.0
  9
$PUCSORGRIGHT
 10
0.0
 20
0.0
 30
0.0
  9
$PUCSORGFRONT
 10
0.0
 20
0.0
 30
0.0
  9
$PUCSORGBACK
 10
0.0
 20
0.0
 30
0.0
  9
$USERI1
 70
     0
  9
$USERI2
 70
     0
  9
$USERI3
 70
     0
  9
$USERI4
 70
     0
  9
$USERI5
 70
     0
  9
$USERR1
 40
0.0
  9
$USERR2
 40
0.0
  9
$USERR3
 40
0.0
  9
$USERR4
 40
0.0
  9
$USERR5
 40
0.0
  9
$WORLDVIEW
 70
     1
  9
$SHADEDGE
 70
     3
  9
$SHADEDIF
 70
    70
  9
$TILEMODE
 70
     1
  9
$MAXACTVP
 70
    64
  9
$PINSBASE
 10
0.0
 20
0.0
 30
0.0
  9
$PLIMCHECK
 70
     0
  9
$PEXTMIN
 10
1.000000000000000E+20
 20
1.000000000000000E+20
 30
1.000000000000000E+20
  9
$PEXTMAX
 10
-1.000000000000000E+20
 20
-1.000000000000000E+20
 30
-1.000000000000000E+20
  9
$PLIMMIN
 10
0.0
 20
0.0
  9
$PLIMMAX
 10
12.0
 20
9.0
  9
$UNITMODE
 70
     0
  9
$VISRETAIN
 70
     1
  9
$PLINEGEN
 70
     0
  9
$PSLTSCALE
 70
     1
  9
$TREEDEPTH
 70
  3020
  9
$CMLSTYLE
  2
Standard
  9
$CMLJUST
 70
     0
  9
$CMLSCALE
 40
1.0
  9
$PROXYGRAPHICS
 70
     1
  9
$MEASUREMENT
 70
     0
  9
$CELWEIGHT
370
    -1
  9
$ENDCAPS
280
     0
  9
$JOINSTYLE
280
     0
  9
$LWDISPLAY
290
     1
  9
$INSUNITS
 70
     1
  9
$HYPERLINKBASE
  1

  9
$STYLESHEET
  1

  9
$XEDIT
290
     1
  9
$CEPSNTYPE
380
     0
  9
$PSTYLEMODE
290
     1
  9
$FINGERPRINTGUID
  2
{13F5ABA4-192C-C34A-AF09-84E4F97278F2}
  9
$VERSIONGUID
  2
{C91F25E8-A703-604F-AC1B-F6FFF8C139E7}
  9
$EXTNAMES
290
     1
  9
$PSVPSCALE
 40
0.0
  9
$OLESTARTUP
290
     0
  9
$SORTENTS
280
   127
  9
$INDEXCTL
280
     0
  9
$HIDETEXT
280
     1
  9
$XCLIPFRAME
280
     2
  9
$HALOGAP
280
     0
  9
$OBSCOLOR
 70
   257
  9
$OBSLTYPE
280
     0
  9
$INTERSECTIONDISPLAY
280
     0
  9
$INTERSECTIONCOLOR
 70
   257
  9
$DIMASSOC
280
     2
  9
$PROJECTNAME
  1

  9
$CAMERADISPLAY
290
     0
  9
$LENSLENGTH
 40
50.0
  9
$CAMERAHEIGHT
 40
0.0
  9
$STEPSPERSEC
 40
2.0
  9
$STEPSIZE
 40
6.0
  9
$3DDWFPREC
 40
2.0
  9
$PSOLWIDTH
 40
0.25
  9
$PSOLHEIGHT
 40
4.0
  9
$LOFTANG1
 40
1.570796326794896
  9
$LOFTANG2
 40
1.570796326794896
  9
$LOFTMAG1
 40
0.0
  9
$LOFTMAG2
 40
0.0
  9
$LOFTPARAM
 70
     7
  9
$LOFTNORMALS
280
     1
  9
$LATITUDE
 40
37.795
  9
$LONGITUDE
 40
-122.394
  9
$NORTHDIRECTION
 40
0.0
  9
$TIMEZONE
 70
 -8000
  9
$LIGHTGLYPHDISPLAY
280
     1
  9
$TILEMODELIGHTSYNCH
280
     1
  9
$CMATERIAL
347
11
  9
$SOLIDHIST
280
     0
  9
$SHOWHIST
280
     1
  9
$DWFFRAME
280
     2
  9
$DGNFRAME
280
     0
  9
$REALWORLDSCALE
290
     1
  9
$INTERFERECOLOR
 62
     1
  9
$INTERFEREOBJVS
345
33
  9
$INTERFEREVPVS
346
30
  9
$CSHADOW
280
     0
  9
$SHADOWPLANELOCATION
 40
0.0
  0
ENDSEC
  0
SECTION
  2
CLASSES
  0
CLASS
  1
ACDBDICTIONARYWDFLT
  2
AcDbDictionaryWithDefault
  3
ObjectDBX Classes
 90
        0
 91
        1
280
     0
281
     0
  0
CLASS
  1
MATERIAL
  2
AcDbMaterial
  3
ObjectDBX Classes
 90
     1153
 91
        3
280
     0
281
     0
  0
CLASS
  1
VISUALSTYLE
  2
AcDbVisualStyle
  3
ObjectDBX Classes
 90
     4095
 91
       24
280
     0
281
     0
  0
CLASS
  1
SCALE
  2
AcDbScale
  3
ObjectDBX Classes
 90
     1153
 91
       17
280
     0
281
     0
  0
CLASS
  1
TABLESTYLE
  2
AcDbTableStyle
  3
ObjectDBX Classes
 90
     4095
 91
        1
280
     0
281
     0
  0
CLASS
  1
MLEADERSTYLE
  2
AcDbMLeaderStyle
  3
ACDB_MLEADERSTYLE_CLASS
 90
     4095
 91
        1
280
     0
281
     0
  0
CLASS
  1
ACDBSECTIONVIEWSTYLE
  2
AcDbSectionViewStyle
  3
ObjectDBX Classes
 90
     1025
 91
        1
280
     0
281
     0
  0
CLASS
  1
ACDBDETAILVIEWSTYLE
  2
AcDbDetailViewStyle
  3
ObjectDBX Classes
 90
     1025
 91
        1
280
     0
281
     0
  0
CLASS
  1
DICTIONARYVAR
  2
AcDbDictionaryVar
  3
ObjectDBX Classes
 90
        0
 91
        5
280
     0
281
     0
  0
CLASS
  1
CELLSTYLEMAP
  2
AcDbCellStyleMap
  3
ObjectDBX Classes
 90
     1152
 91
        1
280
     0
281
     0
  0
ENDSEC
  0
SECTION
  2
TABLES
  0
TABLE
  2
VPORT
  5
8
330
0
100
AcDbSymbolTable
 70
     1
  0
VPORT
  5
57
330
8
100
AcDbSymbolTableRecord
100
AcDbViewportTableRecord
  2
*Active
 70
     0
 10
0.0
 20
0.0
 11
1.0
 21
1.0
 12
0.0
 22
0.0
 13
0.0
 23
0.0
 14
1.0
 24
1.0
 15
0.0
 25
0.0
 16
0.0
 26
0.0
 36
1.0
 17
3.934429527264727
 27
-5.684049079754617
 37
0.0
 40
16.28871165644175
 41
0.7470228083929951
 42
50.0
 43
0.0
 44
0.0
 50
0.0
 51
0.0
 71
     0
 72
   100
 73
     1
 74
     1
 75
     0
 76
     0
 77
     0
 78
     0
281
     0
 65
     1
110
0.0
120
0.0
130
0.0
111
1.0
121
0.0
131
0.0
112
0.0
122
1.0
132
0.0
 79
     0
146
0.0
 60
     3
 61
     5
292
     1
282
     1
141
0.0
142
0.0
 63
   250
421
  3355443
  0
ENDTAB
  0
TABLE
  2
LTYPE
  5
5
330
0
100
AcDbSymbolTable
 70
     1
  0
LTYPE
  5
5B
330
5
100
AcDbSymbolTableRecord
100
AcDbLinetypeTableRecord
  2
ByBlock
 70
     0
  3

 72
    65
 73
     0
 40
0.0
  0
LTYPE
  5
5C
330
5
100
AcDbSymbolTableRecord
100
AcDbLinetypeTableRecord
  2
ByLayer
 70
     0
  3

 72
    65
 73
     0
 40
0.0
  0
LTYPE
  5
5D
330
5
100
AcDbSymbolTableRecord
100
AcDbLinetypeTableRecord
  2
Continuous
 70
     0
  3
Solid line
 72
    65
 73
     0
 40
0.0
  0
ENDTAB
  0
TABLE
  2
LAYER
  5
2
330
0
100
AcDbSymbolTable
 70
     3
  0
LAYER
  5
54
330
2
100
AcDbSymbolTableRecord
100
AcDbLayerTableRecord
  2
0
 70
     0
 62
     7
  6
Continuous
370
    -3
390
F
347
21
348
0
  0
LAYER
  5
78
330
2
100
AcDbSymbolTableRecord
100
AcDbLayerTableRecord
  2
Layer 2
 70
     0
 62
     7
  6
Continuous
370
     0
390
F
347
21
348
0
  0
LAYER
  5
79
330
2
100
AcDbSymbolTableRecord
100
AcDbLayerTableRecord
  2
Layer 1
 70
     0
 62
     7
  6
Continuous
370
     0
390
F
347
21
348
0
  0
ENDTAB
  0
TABLE
  2
STYLE
  5
3
330
0
100
AcDbSymbolTable
 70
     2
  0
STYLE
  5
55
330
3
100
AcDbSymbolTableRecord
100
AcDbTextStyleTableRecord
  2
Standard
 70
     0
 40
0.0
 41
1.0
 50
0.0
 71
     0
 42
0.2
  3
txt
  4

  0
STYLE
  5
5A
330
3
100
AcDbSymbolTableRecord
100
AcDbTextStyleTableRecord
  2
Annotative
 70
     0
 40
0.0
 41
1.0
 50
0.0
 71
     0
 42
0.2
  3
txt
  4

1001
AcadAnnotative
1000
AnnotativeData
1002
{
1070
     1
1070
     1
1002
}
  0
ENDTAB
  0
TABLE
  2
VIEW
  5
6
330
0
100
AcDbSymbolTable
 70
     0
  0
ENDTAB
  0
TABLE
  2
UCS
  5
7
330
0
100
AcDbSymbolTable
 70
     0
  0
ENDTAB
  0
TABLE
  2
APPID
  5
9
330
0
100
AcDbSymbolTable
 70
     2
  0
APPID
  5
56
330
9
100
AcDbSymbolTableRecord
100
AcDbRegAppTableRecord
  2
ACAD
 70
     0
  0
APPID
  5
5E
330
9
100
AcDbSymbolTableRecord
100
AcDbRegAppTableRecord
  2
AcadAnnotative
 70
     0
  0
ENDTAB
  0
TABLE
  2
DIMSTYLE
  5
A
330
0
100
AcDbSymbolTable
 70
     2
100
AcDbDimStyleTable
 71
     0
  0
DIMSTYLE
105
58
330
A
100
AcDbSymbolTableRecord
100
AcDbDimStyleTableRecord
  2
Standard
 70
     0
340
55
  0
DIMSTYLE
105
59
330
A
100
AcDbSymbolTableRecord
100
AcDbDimStyleTableRecord
  2
Annotative
 70
     0
340
55
1001
AcadAnnotative
1000
AnnotativeData
1002
{
1070
     1
1070
     1
1002
}
  0
ENDTAB
  0
TABLE
  2
BLOCK_RECORD
  5
1
330
0
100
AcDbSymbolTable
 70
     1
  0
BLOCK_RECORD
  5
70
330
1
100
AcDbSymbolTableRecord
100
AcDbBlockTableRecord
  2
*Model_Space
340
73
 70
     0
280
     1
281
     0
  0
BLOCK_RECORD
  5
6C
330
1
100
AcDbSymbolTableRecord
100
AcDbBlockTableRecord
  2
*Paper_Space
340
6F
 70
     0
280
     1
281
     0
  0
BLOCK_RECORD
  5
74
330
1
100
AcDbSymbolTableRecord
100
AcDbBlockTableRecord
  2
*Paper_Space0
340
77
 70
     0
280
     1
281
     0
  0
ENDTAB
  0
ENDSEC
  0
SECTION
  2
BLOCKS
  0
BLOCK
  5
71
330
70
100
AcDbEntity
  8
0
100
AcDbBlockBegin
  2
*Model_Space
 70
     0
 10
0.0
 20
0.0
 30
0.0
  3
*Model_Space
  1

  0
ENDBLK
  5
72
330
70
100
AcDbEntity
  8
0
100
AcDbBlockEnd
  0
BLOCK
  5
6D
330
6C
100
AcDbEntity
 67
     1
  8
0
100
AcDbBlockBegin
  2
*Paper_Space
 70
     0
 10
0.0
 20
0.0
 30
0.0
  3
*Paper_Space
  1

  0
ENDBLK
  5
6E
330
6C
100
AcDbEntity
 67
     1
  8
0
100
AcDbBlockEnd
  0
BLOCK
  5
75
330
74
100
AcDbEntity
 67
     1
  8
0
100
AcDbBlockBegin
  2
*Paper_Space0
 70
     0
 10
0.0
 20
0.0
 30
0.0
  3
*Paper_Space0
  1

  0
ENDBLK
  5
76
330
74
100
AcDbEntity
 67
     1
  8
0
100
AcDbBlockEnd
  0
ENDSEC
  0
SECTION
  2
ENTITIES
  0
SPLINE
  5
7A
330
70
100
AcDbEntity
  8
Layer 1
 62
    18
420
    65793
370
    18
100
AcDbSpline
210
0.0
220
0.0
230
1.0
 70
     9
 71
     3
 72
    29
 73
    25
 74
     0
 42
0.0000000001
 43
0.0000000001
 40
0.0
 40
0.0
 40
0.0
 40
0.0
 40
1.0
 40
1.0
 40
1.0
 40
2.0
 40
2.0
 40
2.0
 40
3.0
 40
3.0
 40
3.0
 40
4.0
 40
4.0
 40
4.0
 40
5.0
 40
5.0
 40
5.0
 40
6.0
 40
6.0
 40
6.0
 40
7.0
 40
7.0
 40
7.0
 40
8.0
 40
8.0
 40
8.0
 40
8.0
 10
6.022011794967637
 20
-11.33609100358131
 30
0.0
 10
6.022011794967637
 20
-11.33609100358131
 30
0.0
 10
6.022011794967637
 20
-11.58576887358999
 30
0.0
 10
6.022011794967637
 20
-11.58576887358999
 30
0.0
 10
6.022011794967637
 20
-11.58576887358999
 30
0.0
 10
5.897011794967637
 20
-11.58576887358999
 30
0.0
 10
5.897011794967637
 20
-11.58576887358999
 30
0.0
 10
5.897011794967637
 20
-11.58576887358999
 30
0.0
 10
5.897011794967637
 20
-11.33616899294763
 30
0.0
 10
5.897011794967637
 20
-11.33616899294763
 30
0.0
 10
5.082750252541422
 20
-11.35437696685171
 30
0.0
 10
4.460278125262775
 20
-11.71068579796065
 30
0.0
 10
4.460278125262775
 20
-11.71068579796065
 30
0.0
 10
4.460278125262775
 20
-11.71068579796065
 30
0.0
 10
4.460278125262775
 20
-11.83538570844242
 30
0.0
 10
4.460278125262775
 20
-11.83538570844242
 30
0.0
 10
4.460278125262775
 20
-11.83538570844242
 30
0.0
 10
7.460278125262775
 20
-11.83538570844242
 30
0.0
 10
7.460278125262775
 20
-11.83538570844242
 30
0.0
 10
7.460278125262775
 20
-11.83538570844242
 30
0.0
 10
7.460278125262775
 20
-11.71068579796065
 30
0.0
 10
7.460278125262775
 20
-11.71068579796065
 30
0.0
 10
7.460278125262775
 20
-11.71068579796065
 30
0.0
 10
6.838023011873019
 20
-11.3532774863287
 30
0.0
 10
6.022011794967637
 20
-11.33609100358131
 30
0.0
  0
SPLINE
  5
7B
330
70
100
AcDbEntity
  8
Layer 1
 62
    18
420
    65793
370
    18
100
AcDbSpline
210
0.0
220
0.0
230
1.0
 70
     9
 71
     3
 72
   137
 73
   133
 74
     0
 42
0.0000000001
 43
0.0000000001
 40
0.0
 40
0.0
 40
0.0
 40
0.0
 40
1.0
 40
1.0
 40
1.0
 40
2.0
 40
2.0
 40
2.0
 40
3.0
 40
3.0
 40
3.0
 40
4.0
 40
4.0
 40
4.0
 40
5.0
 40
5.0
 40
5.0
 40
6.0
 40
6.0
 40
6.0
 40
7.0
 40
7.0
 40
7.0
 40
8.0
 40
8.0
 40
8.0
 40
9.0
 40
9.0
 40
9.0
 40
10.0
 40
10.0
 40
10.0
 40
11.0
 40
11.0
 40
11.0
 40
12.0
 40
12.0
 40
12.0
 40
13.0
 40
13.0
 40
13.0
 40
14.0
 40
14.0
 40
14.0
 40
15.0
 40
15.0
 40
15.0
 40
16.0
 40
16.0
 40
16.0
 40
17.0
 40
17.0
 40
17.0
 40
18.0
 40
18.0
 40
18.0
 40
19.0
 40
19.0
 40
19.0
 40
20.0
 40
20.0
 40
20.0
 40
21.0
 40
21.0
 40
21.0
 40
22.0
 40
22.0
 40
22.0
 40
23.0
 40
23.0
 40
23.0
 40
24.0
 40
24.0
 40
24.0
 40
25.0
 40
25.0
 40
25.0
 40
26.0
 40
26.0
 40
26.0
 40
27.0
 40
27.0
 40
27.0
 40
28.0
 40
28.0
 40
28.0
 40
29.0
 40
29.0
 40
29.0
 40
30.0
 40
30.0
 40
30.0
 40
31.0
 40
31.0
 40
31.0
 40
32.0
 40
32.0
 40
32.0
 40
33.0
 40
33.0
 40
33.0
 40
34.0
 40
34.0
 40
34.0
 40
35.0
 40
35.0
 40
35.0
 40
36.0
 40
36.0
 40
36.0
 40
37.0
 40
37.0
 40
37.0
 40
38.0
 40
38.0
 40
38.0
 40
39.0
 40
39.0
 40
39.0
 40
40.0
 40
40.0
 40
40.0
 40
41.0
 40
41.0
 40
41.0
 40
42.0
 40
42.0
 40
42.0
 40
43.0
 40
43.0
 40
43.0
 40
44.0
 40
44.0
 40
44.0
 40
44.0
 10
8.553401501233086
 20
-12.77108646584363
 30
0.0
 10
8.553401501233086
 20
-12.77108646584363
 30
0.0
 10
8.553401501233086
 20
-12.24818048032931
 30
0.0
 10
8.553401501233086
 20
-12.24818048032931
 30
0.0
 10
8.553401501233086
 20
-12.24818048032931
 30
0.0
 10
8.521544540512598
 20
-12.24818048032931
 30
0.0
 10
8.521544540512598
 20
-12.24818048032931
 30
0.0
 10
8.521544540512598
 20
-12.24818048032931
 30
0.0
 10
8.521544540512598
 20
-11.37311690204155
 30
0.0
 10
8.521544540512598
 20
-11.37311690204155
 30
0.0
 10
8.521544540512598
 20
-11.37311690204155
 30
0.0
 10
8.491125296806002
 20
-11.37311690204155
 30
0.0
 10
8.491125296806002
 20
-11.37311690204155
 30
0.0
 10
8.491125296806002
 20
-11.37311690204155
 30
0.0
 10
8.491125296806002
 20
-10.49811690204155
 30
0.0
 10
8.491125296806002
 20
-10.49811690204155
 30
0.0
 10
8.491125296806002
 20
-10.49811690204155
 30
0.0
 10
8.459685409653223
 20
-10.49811690204155
 30
0.0
 10
8.459685409653223
 20
-10.49811690204155
 30
0.0
 10
8.459685409653223
 20
-10.49811690204155
 30
0.0
 10
8.459685409653223
 20
-9.62311690204155
 30
0.0
 10
8.459685409653223
 20
-9.62311690204155
 30
0.0
 10
8.459685409653223
 20
-9.62311690204155
 30
0.0
 10
8.428242131658432
 20
-9.62311690204155
 30
0.0
 10
8.428242131658432
 20
-9.62311690204155
 30
0.0
 10
8.428242131658432
 20
-9.62311690204155
 30
0.0
 10
8.428242131658432
 20
-8.74811690204155
 30
0.0
 10
8.428242131658432
 20
-8.74811690204155
 30
0.0
 10
8.428242131658432
 20
-8.74811690204155
 30
0.0
 10
8.396800549084648
 20
-8.74811690204155
 30
0.0
 10
8.396800549084648
 20
-8.74811690204155
 30
0.0
 10
8.396800549084648
 20
-8.74811690204155
 30
0.0
 10
8.396800549084648
 20
-7.873394951086689
 30
0.0
 10
8.396800549084648
 20
-7.873394951086689
 30
0.0
 10
8.396800549084648
 20
-7.873394951086689
 30
0.0
 10
8.365358966510862
 20
-7.873394951086689
 30
0.0
 10
8.365358966510862
 20
-7.873394951086689
 30
0.0
 10
8.365358966510862
 20
-7.873394951086689
 30
0.0
 10
8.365358966510862
 20
-6.998394951086689
 30
0.0
 10
8.365358966510862
 20
-6.998394951086689
 30
0.0
 10
8.365358966510862
 20
-6.998394951086689
 30
0.0
 10
8.334237818507391
 20
-6.998394951086689
 30
0.0
 10
8.334237818507391
 20
-6.998394951086689
 30
0.0
 10
8.334237818507391
 20
-6.998394951086689
 30
0.0
 10
8.334237818507391
 20
-6.124045992753356
 30
0.0
 10
8.334237818507391
 20
-6.124045992753356
 30
0.0
 10
8.334237818507391
 20
-6.124045992753356
 30
0.0
 10
8.303401501233086
 20
-6.124045992753356
 30
0.0
 10
8.303401501233086
 20
-6.124045992753356
 30
0.0
 10
8.303401501233086
 20
-6.124045992753356
 30
0.0
 10
8.303401501233086
 20
-4.748612812686082
 30
0.0
 10
8.303401501233086
 20
-4.748612812686082
 30
0.0
 10
8.303401501233086
 20
-4.748612812686082
 30
0.0
 10
8.053401501233086
 20
-4.748612812686082
 30
0.0
 10
8.053401501233086
 20
-4.748612812686082
 30
0.0
 10
8.053401501233086
 20
-4.748612812686082
 30
0.0
 10
8.053401501233086
 20
-6.124045992753356
 30
0.0
 10
8.053401501233086
 20
-6.124045992753356
 30
0.0
 10
8.053401501233086
 20
-6.124045992753356
 30
0.0
 10
8.022568574800793
 20
-6.124045992753356
 30
0.0
 10
8.022568574800793
 20
-6.124045992753356
 30
0.0
 10
8.022568574800793
 20
-6.124045992753356
 30
0.0
 10
8.022568574800793
 20
-6.998394951086689
 30
0.0
 10
8.022568574800793
 20
-6.998394951086689
 30
0.0
 10
8.022568574800793
 20
-6.998394951086689
 30
0.0
 10
7.991445731376314
 20
-6.998394951086689
 30
0.0
 10
7.991445731376314
 20
-6.998394951086689
 30
0.0
 10
7.991445731376314
 20
-6.998394951086689
 30
0.0
 10
7.991445731376314
 20
-7.873394951086689
 30
0.0
 10
7.991445731376314
 20
-7.873394951086689
 30
0.0
 10
7.991445731376314
 20
-7.873394951086689
 30
0.0
 10
7.960004148802529
 20
-7.873394951086689
 30
0.0
 10
7.960004148802529
 20
-7.873394951086689
 30
0.0
 10
7.960004148802529
 20
-7.873394951086689
 30
0.0
 10
7.960004148802529
 20
-8.74811690204155
 30
0.0
 10
7.960004148802529
 20
-8.74811690204155
 30
0.0
 10
7.960004148802529
 20
-8.74811690204155
 30
0.0
 10
7.928562566228745
 20
-8.74811690204155
 30
0.0
 10
7.928562566228745
 20
-8.74811690204155
 30
0.0
 10
7.928562566228745
 20
-8.74811690204155
 30
0.0
 10
7.928562566228745
 20
-9.62311690204155
 30
0.0
 10
7.928562566228745
 20
-9.62311690204155
 30
0.0
 10
7.928562566228745
 20
-9.62311690204155
 30
0.0
 10
7.89712098365496
 20
-9.62311690204155
 30
0.0
 10
7.89712098365496
 20
-9.62311690204155
 30
0.0
 10
7.89712098365496
 20
-9.62311690204155
 30
0.0
 10
7.89712098365496
 20
-10.49811690204155
 30
0.0
 10
7.89712098365496
 20
-10.49811690204155
 30
0.0
 10
7.89712098365496
 20
-10.49811690204155
 30
0.0
 10
7.865677705660168
 20
-10.49811690204155
 30
0.0
 10
7.865677705660168
 20
-10.49811690204155
 30
0.0
 10
7.865677705660168
 20
-10.49811690204155
 30
0.0
 10
7.865677705660168
 20
-11.37311690204155
 30
0.0
 10
7.865677705660168
 20
-11.37311690204155
 30
0.0
 10
7.865677705660168
 20
-11.37311690204155
 30
0.0
 10
7.835258461953571
 20
-11.37311690204155
 30
0.0
 10
7.835258461953571
 20
-11.37311690204155
 30
0.0
 10
7.835258461953571
 20
-11.37311690204155
 30
0.0
 10
7.835258461953571
 20
-12.24818048032931
 30
0.0
 10
7.835258461953571
 20
-12.24818048032931
 30
0.0
 10
7.835258461953571
 20
-12.24818048032931
 30
0.0
 10
7.803401501233085
 20
-12.24818048032931
 30
0.0
 10
7.803401501233085
 20
-12.24818048032931
 30
0.0
 10
7.803401501233085
 20
-12.24818048032931
 30
0.0
 10
7.803401501233085
 20
-12.77136705802028
 30
0.0
 10
7.803401501233085
 20
-12.77136705802028
 30
0.0
 10
7.147293916597668
 20
-12.85421465323512
 30
0.0
 10
6.67849814023048
 20
-13.12258623526638
 30
0.0
 10
6.67849814023048
 20
-13.12258623526638
 30
0.0
 10
6.67849814023048
 20
-13.12258623526638
 30
0.0
 10
6.67849814023048
 20
-13.24728614574815
 30
0.0
 10
6.67849814023048
 20
-13.24728614574815
 30
0.0
 10
6.67849814023048
 20
-13.24728614574815
 30
0.0
 10
8.115231809935341
 20
-13.24728614574815
 30
0.0
 10
8.115231809935341
 20
-13.24728614574815
 30
0.0
 10
8.115231809935341
 20
-13.24728614574815
 30
0.0
 10
8.115231809935341
 20
-12.99766931089571
 30
0.0
 10
8.115231809935341
 20
-12.99766931089571
 30
0.0
 10
8.115231809935341
 20
-12.99766931089571
 30
0.0
 10
8.240231809935341
 20
-12.99766931089571
 30
0.0
 10
8.240231809935341
 20
-12.99766931089571
 30
0.0
 10
8.240231809935341
 20
-12.99766931089571
 30
0.0
 10
8.240231809935341
 20
-13.24728614574815
 30
0.0
 10
8.240231809935341
 20
-13.24728614574815
 30
0.0
 10
8.240231809935341
 20
-13.24728614574815
 30
0.0
 10
9.67849814023048
 20
-13.24728614574815
 30
0.0
 10
9.67849814023048
 20
-13.24728614574815
 30
0.0
 10
9.67849814023048
 20
-13.24728614574815
 30
0.0
 10
9.67849814023048
 20
-13.12258623526638
 30
0.0
 10
9.67849814023048
 20
-13.12258623526638
 30
0.0
 10
9.67849814023048
 20
-13.12258623526638
 30
0.0
 10
9.210214381007391
 20
-12.85359582456759
 30
0.0
 10
8.553401501233086
 20
-12.77108646584363
 30
0.0
  0
SPLINE
  5
7C
330
70
100
AcDbEntity
  8
Layer 1
 62
    18
420
    65793
370
    18
100
AcDbSpline
210
0.0
220
0.0
230
1.0
 70
    11
 71
     3
 72
    38
 73
    34
 74
     0
 42
0.0000000001
 43
0.0000000001
 40
0.0
 40
0.0
 40
0.0
 40
0.0
 40
1.0
 40
1.0
 40
1.0
 40
2.0
 40
2.0
 40
2.0
 40
3.0
 40
3.0
 40
3.0
 40
4.0
 40
4.0
 40
4.0
 40
5.0
 40
5.0
 40
5.0
 40
6.0
 40
6.0
 40
6.0
 40
7.0
 40
7.0
 40
7.0
 40
8.0
 40
8.0
 40
8.0
 40
9.0
 40
9.0
 40
9.0
 40
10.0
 40
10.0
 40
10.0
 40
11.0
 40
11.0
 40
11.0
 40
11.0
 10
3.401741214251956
 20
1.984815098678192
 30
0.0
 10
3.401741214251956
 20
1.984815098678192
 30
0.0
 10
2.604867909672962
 20
0.8472638969637829
 30
0.0
 10
2.604867909672962
 20
0.8472638969637829
 30
0.0
 10
2.604867909672962
 20
0.8472638969637829
 30
0.0
 10
1.276741214251956
 20
0.4409138671243733
 30
0.0
 10
1.276741214251956
 20
0.4409138671243733
 30
0.0
 10
1.276741214251956
 20
0.4409138671243733
 30
0.0
 10
2.112371843049698
 20
-0.6684789347962249
 30
0.0
 10
2.112371843049698
 20
-0.6684789347962249
 30
0.0
 10
2.112371843049698
 20
-0.6684789347962249
 30
0.0
 10
2.088418935063587
 20
-2.057167340151042
 30
0.0
 10
2.088418935063587
 20
-2.057167340151042
 30
0.0
 10
2.088418935063587
 20
-2.057167340151042
 30
0.0
 10
3.401741214251956
 20
-1.60526261942079
 30
0.0
 10
3.401741214251956
 20
-1.60526261942079
 30
0.0
 10
3.401741214251956
 20
-1.60526261942079
 30
0.0
 10
4.715063599404124
 20
-2.057167340151042
 30
0.0
 10
4.715063599404124
 20
-2.057167340151042
 30
0.0
 10
4.715063599404124
 20
-2.057167340151042
 30
0.0
 10
4.691112174911394
 20
-0.6684789347962249
 30
0.0
 10
4.691112174911394
 20
-0.6684789347962249
 30
0.0
 10
4.691112174911394
 20
-0.6684789347962249
 30
0.0
 10
5.526741214251942
 20
0.4409138671243733
 30
0.0
 10
5.526741214251942
 20
0.4409138671243733
 30
0.0
 10
5.526741214251942
 20
0.4409138671243733
 30
0.0
 10
4.198615154613839
 20
0.8472638969637829
 30
0.0
 10
4.198615154613839
 20
0.8472638969637829
 30
0.0
 10
4.198615154613839
 20
0.8472638969637829
 30
0.0
 10
3.401741214251956
 20
1.984815098678192
 30
0.0
 10
3.401741214251956
 20
1.984815098678192
 30
0.0
 10
3.401741214251956
 20
1.984815098678192
 30
0.0
 10
3.401741214251956
 20
1.984815098678192
 30
0.0
 10
3.401741214251956
 20
1.984815098678192
 30
0.0
  0
LWPOLYLINE
  5
7D
330
70
100
AcDbEntity
  8
Layer 1
100
AcDbPolyline
 90
        4
 70
     1
 43
0.0
 10
3.744884019501025
 20
-0.2870708037630089
 10
3.058598409002835
 20
-0.2870708037630089
 10
3.058598409002835
 20
-0.1620708037630089
 10
3.744884019501025
 20
-0.1620708037630089
  0
HATCH
  5
7E
330
70
100
AcDbEntity
  8
Layer 1
 62
   143
420
  8370141
440
 33554483
100
AcDbHatch
 10
0.0
 20
0.0
 30
0.0
210
0.0
220
0.0
230
1.0
  2
SOLID
 70
     1
 71
     1
 91
        1
 92
        1
 93
        4
 72
     1
 10
3.744884019501025
 20
-0.2870708037630089
 11
3.058598409002835
 21
-0.2870708037630089
 72
     1
 10
3.058598409002835
 20
-0.2870708037630089
 11
3.058598409002835
 21
-0.1620708037630089
 72
     1
 10
3.058598409002835
 20
-0.1620708037630089
 11
3.744884019501025
 21
-0.1620708037630089
 72
     1
 10
3.744884019501025
 20
-0.1620708037630089
 11
3.744884019501025
 21
-0.2870708037630089
 97
        1
330
7D
 75
     0
 76
     1
 98
        1
 10
0.0
 20
0.0
450
        0
451
        0
460
0.0
461
0.0
452
        0
462
0.0
453
        0
470

  0
SPLINE
  5
7F
330
70
100
AcDbEntity
  8
Layer 1
 62
    18
420
    65793
370
    18
100
AcDbSpline
210
0.0
220
0.0
230
1.0
 70
    11
 71
     3
 72
    65
 73
    61
 74
     0
 42
0.0000000001
 43
0.0000000001
 40
0.0
 40
0.0
 40
0.0
 40
0.0
 40
1.0
 40
1.0
 40
1.0
 40
2.0
 40
2.0
 40
2.0
 40
3.0
 40
3.0
 40
3.0
 40
4.0
 40
4.0
 40
4.0
 40
5.0
 40
5.0
 40
5.0
 40
6.0
 40
6.0
 40
6.0
 40
7.0
 40
7.0
 40
7.0
 40
8.0
 40
8.0
 40
8.0
 40
9.0
 40
9.0
 40
9.0
 40
10.0
 40
10.0
 40
10.0
 40
11.0
 40
11.0
 40
11.0
 40
12.0
 40
12.0
 40
12.0
 40
13.0
 40
13.0
 40
13.0
 40
14.0
 40
14.0
 40
14.0
 40
15.0
 40
15.0
 40
15.0
 40
16.0
 40
16.0
 40
16.0
 40
17.0
 40
17.0
 40
17.0
 40
18.0
 40
18.0
 40
18.0
 40
19.0
 40
19.0
 40
19.0
 40
20.0
 40
20.0
 40
20.0
 40
20.0
 10
-0.083721090679521
 20
0.6123398946403364
 30
0.0
 10
-0.083721090679521
 20
0.6123398946403364
 30
0.0
 10
0.622148795930722
 20
-0.3953022155484657
 30
0.0
 10
0.622148795930722
 20
-0.3953022155484657
 30
0.0
 10
0.622148795930722
 20
-0.3953022155484657
 30
0.0
 10
0.6440850006290728
 20
-0.4266166415467297
 30
0.0
 10
0.6440850006290728
 20
-0.4266166415467297
 30
0.0
 10
0.6440850006290728
 20
-0.4266166415467297
 30
0.0
 10
0.6806450592228228
 20
-0.4378021816400456
 30
0.0
 10
0.6806450592228228
 20
-0.4378021816400456
 30
0.0
 10
0.6806450592228228
 20
-0.4378021816400456
 30
0.0
 10
1.857098119796824
 20
-0.7977459953878754
 30
0.0
 10
1.857098119796824
 20
-0.7977459953878754
 30
0.0
 10
1.857098119796824
 20
-0.7977459953878754
 30
0.0
 10
1.116898183036028
 20
-1.780445919433001
 30
0.0
 10
1.116898183036028
 20
-1.780445919433001
 30
0.0
 10
1.116898183036028
 20
-1.780445919433001
 30
0.0
 10
1.093895664488122
 20
-1.810984690320588
 30
0.0
 10
1.093895664488122
 20
-1.810984690320588
 30
0.0
 10
1.093895664488122
 20
-1.810984690320588
 30
0.0
 10
1.094554759404571
 20
-1.849212195474668
 30
0.0
 10
1.094554759404571
 20
-1.849212195474668
 30
0.0
 10
1.094554759404571
 20
-1.849212195474668
 30
0.0
 10
1.115770939994035
 20
-3.079311767550406
 30
0.0
 10
1.115770939994035
 20
-3.079311767550406
 30
0.0
 10
1.115770939994035
 20
-3.079311767550406
 30
0.0
 10
-0.047568992765567
 20
-2.679013966850536
 30
0.0
 10
-0.047568992765567
 20
-2.679013966850536
 30
0.0
 10
-0.047568992765567
 20
-2.679013966850536
 30
0.0
 10
-0.083721090679521
 20
-2.666573815212081
 30
0.0
 10
-0.083721090679521
 20
-2.666573815212081
 30
0.0
 10
-0.083721090679521
 20
-2.666573815212081
 30
0.0
 10
-0.119873188593475
 20
-2.679013966850536
 30
0.0
 10
-0.119873188593475
 20
-2.679013966850536
 30
0.0
 10
-0.119873188593475
 20
-2.679013966850536
 30
0.0
 10
-1.283212803461639
 20
-3.079311767550406
 30
0.0
 10
-1.283212803461639
 20
-3.079311767550406
 30
0.0
 10
-1.283212803461639
 20
-3.079311767550406
 30
0.0
 10
-1.261995881125484
 20
-1.849212195474668
 30
0.0
 10
-1.261995881125484
 20
-1.849212195474668
 30
0.0
 10
-1.261995881125484
 20
-1.849212195474668
 30
0.0
 10
-1.261336786209034
 20
-1.810984690320588
 30
0.0
 10
-1.261336786209034
 20
-1.810984690320588
 30
0.0
 10
-1.261336786209034
 20
-1.810984690320588
 30
0.0
 10
-1.284338986865501
 20
-1.780445071722498
 30
0.0
 10
-1.284338986865501
 20
-1.780445071722498
 30
0.0
 10
-1.284338986865501
 20
-1.780445071722498
 30
0.0
 10
-2.024539877300614
 20
-0.7977459953878754
 30
0.0
 10
-2.024539877300614
 20
-0.7977459953878754
 30
0.0
 10
-2.024539877300614
 20
-0.7977459953878754
 30
0.0
 10
-0.8480868167266129
 20
-0.4378021816400456
 30
0.0
 10
-0.8480868167266129
 20
-0.4378021816400456
 30
0.0
 10
-0.8480868167266129
 20
-0.4378021816400456
 30
0.0
 10
-0.8115267581328629
 20
-0.4266166415467297
 30
0.0
 10
-0.8115267581328629
 20
-0.4266166415467297
 30
0.0
 10
-0.8115267581328629
 20
-0.4266166415467297
 30
0.0
 10
-0.7895903415068864
 20
-0.3953022155484657
 30
0.0
 10
-0.7895903415068864
 20
-0.3953022155484657
 30
0.0
 10
-0.7895903415068864
 20
-0.3953022155484657
 30
0.0
 10
-0.083721090679521
 20
0.6123398946403364
 30
0.0
 10
-0.083721090679521
 20
0.6123398946403364
 30
0.0
  0
LWPOLYLINE
  5
80
330
70
100
AcDbEntity
  8
Layer 1
100
AcDbPolyline
 90
        4
 70
     1
 43
0.0
 10
0.2290027035932225
 20
-1.465887390993101
 10
-0.3964444610970632
 20
-1.465887390993101
 10
-0.3964444610970632
 20
-1.340887390993101
 10
0.2290027035932225
 20
-1.340887390993101
  0
HATCH
  5
81
330
70
100
AcDbEntity
  8
Layer 1
 62
   143
420
  8370141
440
 33554483
100
AcDbHatch
 10
0.0
 20
0.0
 30
0.0
210
0.0
220
0.0
230
1.0
  2
SOLID
 70
     1
 71
     1
 91
        1
 92
        1
 93
        4
 72
     1
 10
0.2290027035932225
 20
-1.465887390993101
 11
-0.3964444610970632
 21
-1.465887390993101
 72
     1
 10
-0.3964444610970632
 20
-1.465887390993101
 11
-0.3964444610970632
 21
-1.340887390993101
 72
     1
 10
-0.3964444610970632
 20
-1.340887390993101
 11
0.2290027035932225
 21
-1.340887390993101
 72
     1
 10
0.2290027035932225
 20
-1.340887390993101
 11
0.2290027035932225
 21
-1.465887390993101
 97
        1
330
80
 75
     0
 76
     1
 98
        1
 10
0.0
 20
0.0
450
        0
451
        0
460
0.0
461
0.0
452
        0
462
0.0
453
        0
470

  0
SPLINE
  5
82
330
70
100
AcDbEntity
  8
Layer 1
 62
    18
420
    65793
370
    18
100
AcDbSpline
210
0.0
220
0.0
230
1.0
 70
    11
 71
     3
 72
    65
 73
    61
 74
     0
 42
0.0000000001
 43
0.0000000001
 40
0.0
 40
0.0
 40
0.0
 40
0.0
 40
1.0
 40
1.0
 40
1.0
 40
2.0
 40
2.0
 40
2.0
 40
3.0
 40
3.0
 40
3.0
 40
4.0
 40
4.0
 40
4.0
 40
5.0
 40
5.0
 40
5.0
 40
6.0
 40
6.0
 40
6.0
 40
7.0
 40
7.0
 40
7.0
 40
8.0
 40
8.0
 40
8.0
 40
9.0
 40
9.0
 40
9.0
 40
10.0
 40
10.0
 40
10.0
 40
11.0
 40
11.0
 40
11.0
 40
12.0
 40
12.0
 40
12.0
 40
13.0
 40
13.0
 40
13.0
 40
14.0
 40
14.0
 40
14.0
 40
15.0
 40
15.0
 40
15.0
 40
16.0
 40
16.0
 40
16.0
 40
17.0
 40
17.0
 40
17.0
 40
18.0
 40
18.0
 40
18.0
 40
19.0
 40
19.0
 40
19.0
 40
20.0
 40
20.0
 40
20.0
 40
20.0
 10
-0.0837210906795084
 20
-6.094796854107571
 30
0.0
 10
-0.0837210906795084
 20
-6.094796854107571
 30
0.0
 10
0.5311449541067456
 20
-6.972528177349759
 30
0.0
 10
0.5311449541067456
 20
-6.972528177349759
 30
0.0
 10
0.5311449541067456
 20
-6.972528177349759
 30
0.0
 10
0.5750171515758212
 20
-7.035156181635784
 30
0.0
 10
0.5750171515758212
 20
-7.035156181635784
 30
0.0
 10
0.5750171515758212
 20
-7.035156181635784
 30
0.0
 10
0.6481366329804434
 20
-7.057527261822415
 30
0.0
 10
0.6481366329804434
 20
-7.057527261822415
 30
0.0
 10
0.6481366329804434
 20
-7.057527261822415
 30
0.0
 10
1.672917330273144
 20
-7.371067402610176
 30
0.0
 10
1.672917330273144
 20
-7.371067402610176
 30
0.0
 10
1.672917330273144
 20
-7.371067402610176
 30
0.0
 10
1.028147661694043
 20
-8.22707190564837
 30
0.0
 10
1.028147661694043
 20
-8.22707190564837
 30
0.0
 10
1.028147661694043
 20
-8.22707190564837
 30
0.0
 10
0.9821420947791668
 20
-8.288149447423544
 30
0.0
 10
0.9821420947791668
 20
-8.288149447423544
 30
0.0
 10
0.9821420947791668
 20
-8.288149447423544
 30
0.0
 10
0.9834608144311307
 20
-8.3646036100212
 30
0.0
 10
0.9834608144311307
 20
-8.3646036100212
 30
0.0
 10
0.9834608144311307
 20
-8.3646036100212
 30
0.0
 10
1.001941751117328
 20
-9.436114772673109
 30
0.0
 10
1.001941751117328
 20
-9.436114772673109
 30
0.0
 10
1.001941751117328
 20
-9.436114772673109
 30
0.0
 10
-0.0114168948516004
 20
-9.087425163569378
 30
0.0
 10
-0.0114168948516004
 20
-9.087425163569378
 30
0.0
 10
-0.0114168948516004
 20
-9.087425163569378
 30
0.0
 10
-0.0837210906795084
 20
-9.062546555713474
 30
0.0
 10
-0.0837210906795084
 20
-9.062546555713474
 30
0.0
 10
-0.0837210906795084
 20
-9.062546555713474
 30
0.0
 10
-0.1560252865074163
 20
-9.087425163569378
 30
0.0
 10
-0.1560252865074163
 20
-9.087425163569378
 30
0.0
 10
-0.1560252865074163
 20
-9.087425163569378
 30
0.0
 10
-1.169383508621131
 20
-9.436114772673109
 30
0.0
 10
-1.169383508621131
 20
-9.436114772673109
 30
0.0
 10
-1.169383508621131
 20
-9.436114772673109
 30
0.0
 10
-1.15090172422443
 20
-8.364604457731704
 30
0.0
 10
-1.15090172422443
 20
-8.364604457731704
 30
0.0
 10
-1.15090172422443
 20
-8.364604457731704
 30
0.0
 10
-1.149582686681027
 20
-8.288149447423544
 30
0.0
 10
-1.149582686681027
 20
-8.288149447423544
 30
0.0
 10
-1.149582686681027
 20
-8.288149447423544
 30
0.0
 10
-1.195588359559716
 20
-8.22707190564837
 30
0.0
 10
-1.195588359559716
 20
-8.22707190564837
 30
0.0
 10
-1.195588359559716
 20
-8.22707190564837
 30
0.0
 10
-1.840359087776947
 20
-7.371067402610176
 30
0.0
 10
-1.840359087776947
 20
-7.371067402610176
 30
0.0
 10
-1.840359087776947
 20
-7.371067402610176
 30
0.0
 10
-0.8155788143394476
 20
-7.057527261822415
 30
0.0
 10
-0.8155788143394476
 20
-7.057527261822415
 30
0.0
 10
-0.8155788143394476
 20
-7.057527261822415
 30
0.0
 10
-0.7424593329348252
 20
-7.035156181635784
 30
0.0
 10
-0.7424593329348252
 20
-7.035156181635784
 30
0.0
 10
-0.7424593329348252
 20
-7.035156181635784
 30
0.0
 10
-0.6985871354657497
 20
-6.972528177349759
 30
0.0
 10
-0.6985871354657497
 20
-6.972528177349759
 30
0.0
 10
-0.6985871354657497
 20
-6.972528177349759
 30
0.0
 10
-0.0837210906795084
 20
-6.094796854107571
 30
0.0
 10
-0.0837210906795084
 20
-6.094796854107571
 30
0.0
  0
LWPOLYLINE
  5
83
330
70
100
AcDbEntity
  8
Layer 1
100
AcDbPolyline
 90
        4
 70
     1
 43
0.0
 10
0.1975609858018414
 20
-7.97936382751229
 10
-0.3650027433056569
 20
-7.97936382751229
 10
-0.3650027433056569
 20
-7.85436382751229
 10
0.1975609858018414
 20
-7.85436382751229
  0
HATCH
  5
84
330
70
100
AcDbEntity
  8
Layer 1
 62
   143
420
  8370141
440
 33554483
100
AcDbHatch
 10
0.0
 20
0.0
 30
0.0
210
0.0
220
0.0
230
1.0
  2
SOLID
 70
     1
 71
     1
 91
        1
 92
        1
 93
        4
 72
     1
 10
0.1975609858018414
 20
-7.97936382751229
 11
-0.3650027433056568
 21
-7.97936382751229
 72
     1
 10
-0.3650027433056569
 20
-7.97936382751229
 11
-0.3650027433056569
 21
-7.85436382751229
 72
     1
 10
-0.3650027433056569
 20
-7.85436382751229
 11
0.1975609858018414
 21
-7.85436382751229
 72
     1
 10
0.1975609858018414
 20
-7.85436382751229
 11
0.1975609858018414
 21
-7.97936382751229
 97
        1
330
83
 75
     0
 76
     1
 98
        1
 10
0.0
 20
0.0
450
        0
451
        0
460
0.0
461
0.0
452
        0
462
0.0
453
        0
470

  0
SPLINE
  5
85
330
70
100
AcDbEntity
  8
Layer 1
 62
    18
420
    65793
370
    18
100
AcDbSpline
210
0.0
220
0.0
230
1.0
 70
    11
 71
     3
 72
    65
 73
    61
 74
     0
 42
0.0000000001
 43
0.0000000001
 40
0.0
 40
0.0
 40
0.0
 40
0.0
 40
1.0
 40
1.0
 40
1.0
 40
2.0
 40
2.0
 40
2.0
 40
3.0
 40
3.0
 40
3.0
 40
4.0
 40
4.0
 40
4.0
 40
5.0
 40
5.0
 40
5.0
 40
6.0
 40
6.0
 40
6.0
 40
7.0
 40
7.0
 40
7.0
 40
8.0
 40
8.0
 40
8.0
 40
9.0
 40
9.0
 40
9.0
 40
10.0
 40
10.0
 40
10.0
 40
11.0
 40
11.0
 40
11.0
 40
12.0
 40
12.0
 40
12.0
 40
13.0
 40
13.0
 40
13.0
 40
14.0
 40
14.0
 40
14.0
 40
15.0
 40
15.0
 40
15.0
 40
16.0
 40
16.0
 40
16.0
 40
17.0
 40
17.0
 40
17.0
 40
18.0
 40
18.0
 40
18.0
 40
19.0
 40
19.0
 40
19.0
 40
20.0
 40
20.0
 40
20.0
 40
20.0
 10
3.337465144536407
 20
-5.408210011092882
 30
0.0
 10
3.337465144536407
 20
-5.408210011092882
 30
0.0
 10
3.861327771353899
 20
-6.156033090519991
 30
0.0
 10
3.861327771353899
 20
-6.156033090519991
 30
0.0
 10
3.861327771353899
 20
-6.156033090519991
 30
0.0
 10
3.927135537738447
 20
-6.249975520804278
 30
0.0
 10
3.927135537738447
 20
-6.249975520804278
 30
0.0
 10
3.927135537738447
 20
-6.249975520804278
 30
0.0
 10
4.036815289664446
 20
-6.283532141084227
 30
0.0
 10
4.036815289664446
 20
-6.283532141084227
 30
0.0
 10
4.036815289664446
 20
-6.283532141084227
 30
0.0
 10
4.909922670001606
 20
-6.550666065780407
 30
0.0
 10
4.909922670001606
 20
-6.550666065780407
 30
0.0
 10
4.909922670001606
 20
-6.550666065780407
 30
0.0
 10
4.360582845748947
 20
-7.279976843232664
 30
0.0
 10
4.360582845748947
 20
-7.279976843232664
 30
0.0
 10
4.360582845748947
 20
-7.279976843232664
 30
0.0
 10
4.291574124503287
 20
-7.371594003605927
 30
0.0
 10
4.291574124503287
 20
-7.371594003605927
 30
0.0
 10
4.291574124503287
 20
-7.371594003605927
 30
0.0
 10
4.293552045035514
 20
-7.486275671357664
 30
0.0
 10
4.293552045035514
 20
-7.486275671357664
 30
0.0
 10
4.293552045035514
 20
-7.486275671357664
 30
0.0
 10
4.309298055709884
 20
-8.39919715301999
 30
0.0
 10
4.309298055709884
 20
-8.39919715301999
 30
0.0
 10
4.309298055709884
 20
-8.39919715301999
 30
0.0
 10
3.445922074061147
 20
-8.102114463946639
 30
0.0
 10
3.445922074061147
 20
-8.102114463946639
 30
0.0
 10
3.445922074061147
 20
-8.102114463946639
 30
0.0
 10
3.337465144536407
 20
-8.064795704452283
 30
0.0
 10
3.337465144536407
 20
-8.064795704452283
 30
0.0
 10
3.337465144536407
 20
-8.064795704452283
 30
0.0
 10
3.229008215011667
 20
-8.102114463946639
 30
0.0
 10
3.229008215011667
 20
-8.102114463946639
 30
0.0
 10
3.229008215011667
 20
-8.102114463946639
 30
0.0
 10
2.365632869145782
 20
-8.399196305309487
 30
0.0
 10
2.365632869145782
 20
-8.399196305309487
 30
0.0
 10
2.365632869145782
 20
-8.399196305309487
 30
0.0
 10
2.38137951560303
 20
-7.486275671357664
 30
0.0
 10
2.38137951560303
 20
-7.486275671357664
 30
0.0
 10
2.38137951560303
 20
-7.486275671357664
 30
0.0
 10
2.383357648062883
 20
-7.371594003605927
 30
0.0
 10
2.383357648062883
 20
-7.371594003605927
 30
0.0
 10
2.383357648062883
 20
-7.371594003605927
 30
0.0
 10
2.314348926817223
 20
-7.279976843232664
 30
0.0
 10
2.314348926817223
 20
-7.279976843232664
 30
0.0
 10
2.314348926817223
 20
-7.279976843232664
 30
0.0
 10
1.765007936962622
 20
-6.550666065780407
 30
0.0
 10
1.765007936962622
 20
-6.550666065780407
 30
0.0
 10
1.765007936962622
 20
-6.550666065780407
 30
0.0
 10
2.638114999408369
 20
-6.283532141084227
 30
0.0
 10
2.638114999408369
 20
-6.283532141084227
 30
0.0
 10
2.638114999408369
 20
-6.283532141084227
 30
0.0
 10
2.74779475133438
 20
-6.249975520804278
 30
0.0
 10
2.74779475133438
 20
-6.249975520804278
 30
0.0
 10
2.74779475133438
 20
-6.249975520804278
 30
0.0
 10
2.813602517718916
 20
-6.156033090519991
 30
0.0
 10
2.813602517718916
 20
-6.156033090519991
 30
0.0
 10
2.813602517718916
 20
-6.156033090519991
 30
0.0
 10
3.337465144536407
 20
-5.408210011092882
 30
0.0
 10
3.337465144536407
 20
-5.408210011092882
 30
0.0
  0
LWPOLYLINE
  5
86
330
70
100
AcDbEntity
  8
Layer 1
100
AcDbPolyline
 90
        4
 70
     1
 43
0.0
 10
3.587305450244432
 20
-7.099119215400403
 10
3.087625156719771
 20
-7.099119215400403
 10
3.087625156719771
 20
-6.974119215400403
 10
3.587305450244432
 20
-6.974119215400403
  0
HATCH
  5
87
330
70
100
AcDbEntity
  8
Layer 1
 62
   143
420
  8370141
440
 33554483
100
AcDbHatch
 10
0.0
 20
0.0
 30
0.0
210
0.0
220
0.0
230
1.0
  2
SOLID
 70
     1
 71
     1
 91
        1
 92
        1
 93
        4
 72
     1
 10
3.587305450244432
 20
-7.099119215400403
 11
3.087625156719771
 21
-7.099119215400403
 72
     1
 10
3.087625156719771
 20
-7.099119215400403
 11
3.087625156719771
 21
-6.974119215400403
 72
     1
 10
3.087625156719771
 20
-6.974119215400403
 11
3.587305450244432
 21
-6.974119215400403
 72
     1
 10
3.587305450244432
 20
-6.974119215400403
 11
3.587305450244432
 21
-7.099119215400403
 97
        1
330
86
 75
     0
 76
     1
 98
        1
 10
0.0
 20
0.0
450
        0
451
        0
460
0.0
461
0.0
452
        0
462
0.0
453
        0
470

  0
SPLINE
  5
88
330
70
100
AcDbEntity
  8
Layer 1
 62
    18
420
    65793
370
    18
100
AcDbSpline
210
0.0
220
0.0
230
1.0
 70
    11
 71
     3
 72
    65
 73
    61
 74
     0
 42
0.0000000001
 43
0.0000000001
 40
0.0
 40
0.0
 40
0.0
 40
0.0
 40
1.0
 40
1.0
 40
1.0
 40
2.0
 40
2.0
 40
2.0
 40
3.0
 40
3.0
 40
3.0
 40
4.0
 40
4.0
 40
4.0
 40
5.0
 40
5.0
 40
5.0
 40
6.0
 40
6.0
 40
6.0
 40
7.0
 40
7.0
 40
7.0
 40
8.0
 40
8.0
 40
8.0
 40
9.0
 40
9.0
 40
9.0
 40
10.0
 40
10.0
 40
10.0
 40
11.0
 40
11.0
 40
11.0
 40
12.0
 40
12.0
 40
12.0
 40
13.0
 40
13.0
 40
13.0
 40
14.0
 40
14.0
 40
14.0
 40
15.0
 40
15.0
 40
15.0
 40
16.0
 40
16.0
 40
16.0
 40
17.0
 40
17.0
 40
17.0
 40
18.0
 40
18.0
 40
18.0
 40
19.0
 40
19.0
 40
19.0
 40
20.0
 40
20.0
 40
20.0
 40
20.0
 10
6.638784806577935
 20
2.078150499613633
 30
0.0
 10
6.638784806577935
 20
2.078150499613633
 30
0.0
 10
7.071643379643798
 20
1.46023651171217
 30
0.0
 10
7.071643379643798
 20
1.46023651171217
 30
0.0
 10
7.071643379643798
 20
1.46023651171217
 30
0.0
 10
7.159386926871446
 20
1.334981350850625
 30
0.0
 10
7.159386926871446
 20
1.334981350850625
 30
0.0
 10
7.159386926871446
 20
1.334981350850625
 30
0.0
 10
7.305627161246446
 20
1.290237495056342
 30
0.0
 10
7.305627161246446
 20
1.290237495056342
 30
0.0
 10
7.305627161246446
 20
1.290237495056342
 30
0.0
 10
8.027061330591852
 20
1.069509786451754
 30
0.0
 10
8.027061330591852
 20
1.069509786451754
 30
0.0
 10
8.027061330591852
 20
1.069509786451754
 30
0.0
 10
7.573151668557076
 20
0.4668927345854349
 30
0.0
 10
7.573151668557076
 20
0.4668927345854349
 30
0.0
 10
7.573151668557076
 20
0.4668927345854349
 30
0.0
 10
7.481140110872097
 20
0.3447368033245715
 30
0.0
 10
7.481140110872097
 20
0.3447368033245715
 30
0.0
 10
7.481140110872097
 20
0.3447368033245715
 30
0.0
 10
7.483777550176025
 20
0.1918284781292591
 30
0.0
 10
7.483777550176025
 20
0.1918284781292591
 30
0.0
 10
7.483777550176025
 20
0.1918284781292591
 30
0.0
 10
7.496787575200439
 20
-0.5625041702539875
 30
0.0
 10
7.496787575200439
 20
-0.5625041702539875
 30
0.0
 10
7.496787575200439
 20
-0.5625041702539875
 30
0.0
 10
6.783393410161377
 20
-0.3170300966320256
 30
0.0
 10
6.783393410161377
 20
-0.3170300966320256
 30
0.0
 10
6.783393410161377
 20
-0.3170300966320256
 30
0.0
 10
6.638784806577935
 20
-0.2672711854992131
 30
0.0
 10
6.638784806577935
 20
-0.2672711854992131
 30
0.0
 10
6.638784806577935
 20
-0.2672711854992131
 30
0.0
 10
6.494176202994493
 20
-0.3170300966320256
 30
0.0
 10
6.494176202994493
 20
-0.3170300966320256
 30
0.0
 10
6.494176202994493
 20
-0.3170300966320256
 30
0.0
 10
5.780782673738309
 20
-0.5625041702539875
 30
0.0
 10
5.780782673738309
 20
-0.5625041702539875
 30
0.0
 10
5.780782673738309
 20
-0.5625041702539875
 30
0.0
 10
5.793793758400852
 20
0.1918276304187556
 30
0.0
 10
5.793793758400852
 20
0.1918276304187556
 30
0.0
 10
5.793793758400852
 20
0.1918276304187556
 30
0.0
 10
5.796430985777154
 20
0.3447368033245715
 30
0.0
 10
5.796430985777154
 20
0.3447368033245715
 30
0.0
 10
5.796430985777154
 20
0.3447368033245715
 30
0.0
 10
5.704419640019775
 20
0.4668927345854349
 30
0.0
 10
5.704419640019775
 20
0.4668927345854349
 30
0.0
 10
5.704419640019775
 20
0.4668927345854349
 30
0.0
 10
5.250508812383056
 20
1.069509786451754
 30
0.0
 10
5.250508812383056
 20
1.069509786451754
 30
0.0
 10
5.250508812383056
 20
1.069509786451754
 30
0.0
 10
5.971942451909423
 20
1.290237495056342
 30
0.0
 10
5.971942451909423
 20
1.290237495056342
 30
0.0
 10
5.971942451909423
 20
1.290237495056342
 30
0.0
 10
6.118182686284423
 20
1.334981350850625
 30
0.0
 10
6.118182686284423
 20
1.334981350850625
 30
0.0
 10
6.118182686284423
 20
1.334981350850625
 30
0.0
 10
6.205926233512071
 20
1.46023651171217
 30
0.0
 10
6.205926233512071
 20
1.46023651171217
 30
0.0
 10
6.205926233512071
 20
1.46023651171217
 30
0.0
 10
6.638784806577935
 20
2.078150499613633
 30
0.0
 10
6.638784806577935
 20
2.078150499613633
 30
0.0
  0
LWPOLYLINE
  5
89
330
70
100
AcDbEntity
  8
Layer 1
100
AcDbPolyline
 90
        4
 70
     1
 43
0.0
 10
6.857183500458353
 20
0.5809007598243423
 10
6.420386642516531
 20
0.5809007598243423
 10
6.420386642516531
 20
0.7059007598243423
 10
6.857183500458353
 20
0.7059007598243423
  0
HATCH
  5
8A
330
70
100
AcDbEntity
  8
Layer 1
 62
   143
420
  8370141
440
 33554483
100
AcDbHatch
 10
0.0
 20
0.0
 30
0.0
210
0.0
220
0.0
230
1.0
  2
SOLID
 70
     1
 71
     1
 91
        1
 92
        1
 93
        4
 72
     1
 10
6.857183500458353
 20
0.5809007598243423
 11
6.420386642516531
 21
0.5809007598243423
 72
     1
 10
6.420386642516531
 20
0.5809007598243423
 11
6.420386642516531
 21
0.7059007598243423
 72
     1
 10
6.420386642516531
 20
0.7059007598243423
 11
6.857183500458353
 21
0.7059007598243423
 72
     1
 10
6.857183500458353
 20
0.7059007598243423
 11
6.857183500458353
 21
0.5809007598243423
 97
        1
330
89
 75
     0
 76
     1
 98
        1
 10
0.0
 20
0.0
450
        0
451
        0
460
0.0
461
0.0
452
        0
462
0.0
453
        0
470

  0
SPLINE
  5
8B
330
70
100
AcDbEntity
  8
Layer 1
 62
    18
420
    65793
370
    18
100
AcDbSpline
210
0.0
220
0.0
230
1.0
 70
    11
 71
     3
 72
    65
 73
    61
 74
     0
 42
0.0000000001
 43
0.0000000001
 40
0.0
 40
0.0
 40
0.0
 40
0.0
 40
1.0
 40
1.0
 40
1.0
 40
2.0
 40
2.0
 40
2.0
 40
3.0
 40
3.0
 40
3.0
 40
4.0
 40
4.0
 40
4.0
 40
5.0
 40
5.0
 40
5.0
 40
6.0
 40
6.0
 40
6.0
 40
7.0
 40
7.0
 40
7.0
 40
8.0
 40
8.0
 40
8.0
 40
9.0
 40
9.0
 40
9.0
 40
10.0
 40
10.0
 40
10.0
 40
11.0
 40
11.0
 40
11.0
 40
12.0
 40
12.0
 40
12.0
 40
13.0
 40
13.0
 40
13.0
 40
14.0
 40
14.0
 40
14.0
 40
15.0
 40
15.0
 40
15.0
 40
16.0
 40
16.0
 40
16.0
 40
17.0
 40
17.0
 40
17.0
 40
18.0
 40
18.0
 40
18.0
 40
19.0
 40
19.0
 40
19.0
 40
20.0
 40
20.0
 40
20.0
 40
20.0
 10
6.638784806577909
 20
-2.801122182784082
 30
0.0
 10
6.638784806577909
 20
-2.801122182784082
 30
0.0
 10
6.980640597457901
 20
-3.289126231449447
 30
0.0
 10
6.980640597457901
 20
-3.289126231449447
 30
0.0
 10
6.980640597457901
 20
-3.289126231449447
 30
0.0
 10
7.090320137456274
 20
-3.445695818309256
 30
0.0
 10
7.090320137456274
 20
-3.445695818309256
 30
0.0
 10
7.090320137456274
 20
-3.445695818309256
 30
0.0
 10
7.27311958271452
 20
-3.501625214196842
 30
0.0
 10
7.27311958271452
 20
-3.501625214196842
 30
0.0
 10
7.27311958271452
 20
-3.501625214196842
 30
0.0
 10
7.842880752995799
 20
-3.675947554420367
 30
0.0
 10
7.842880752995799
 20
-3.675947554420367
 30
0.0
 10
7.842880752995799
 20
-3.675947554420367
 30
0.0
 10
7.484399981613174
 20
-4.151871728411252
 30
0.0
 10
7.484399981613174
 20
-4.151871728411252
 30
0.0
 10
7.484399981613174
 20
-4.151871728411252
 30
0.0
 10
7.3693853755612
 20
-4.304565582849186
 30
0.0
 10
7.3693853755612
 20
-4.304565582849186
 30
0.0
 10
7.3693853755612
 20
-4.304565582849186
 30
0.0
 10
7.372682121709203
 20
-4.495702260909082
 30
0.0
 10
7.372682121709203
 20
-4.495702260909082
 30
0.0
 10
7.372682121709203
 20
-4.495702260909082
 30
0.0
 10
7.38295722072179
 20
-5.091445228302745
 30
0.0
 10
7.38295722072179
 20
-5.091445228302745
 30
0.0
 10
7.38295722072179
 20
-5.091445228302745
 30
0.0
 10
6.819545931930557
 20
-4.897578922421669
 30
0.0
 10
6.819545931930557
 20
-4.897578922421669
 30
0.0
 10
6.819545931930557
 20
-4.897578922421669
 30
0.0
 10
6.638784594650283
 20
-4.835380707360905
 30
0.0
 10
6.638784594650283
 20
-4.835380707360905
 30
0.0
 10
6.638784594650283
 20
-4.835380707360905
 30
0.0
 10
6.45802325737001
 20
-4.897578922421669
 30
0.0
 10
6.45802325737001
 20
-4.897578922421669
 30
0.0
 10
6.45802325737001
 20
-4.897578922421669
 30
0.0
 10
5.894612604361655
 20
-5.091444380592242
 30
0.0
 10
5.894612604361655
 20
-5.091444380592242
 30
0.0
 10
5.894612604361655
 20
-5.091444380592242
 30
0.0
 10
5.904887703374242
 20
-4.495702260909082
 30
0.0
 10
5.904887703374242
 20
-4.495702260909082
 30
0.0
 10
5.904887703374242
 20
-4.495702260909082
 30
0.0
 10
5.908184873377497
 20
-4.304565582849186
 30
0.0
 10
5.908184873377497
 20
-4.304565582849186
 30
0.0
 10
5.908184873377497
 20
-4.304565582849186
 30
0.0
 10
5.793170055397896
 20
-4.151870880700749
 30
0.0
 10
5.793170055397896
 20
-4.151870880700749
 30
0.0
 10
5.793170055397896
 20
-4.151870880700749
 30
0.0
 10
5.43468938997906
 20
-3.675947554420367
 30
0.0
 10
5.43468938997906
 20
-3.675947554420367
 30
0.0
 10
5.43468938997906
 20
-3.675947554420367
 30
0.0
 10
6.004450454296551
 20
-3.501625214196842
 30
0.0
 10
6.004450454296551
 20
-3.501625214196842
 30
0.0
 10
6.004450454296551
 20
-3.501625214196842
 30
0.0
 10
6.187249899554798
 20
-3.445695818309256
 30
0.0
 10
6.187249899554798
 20
-3.445695818309256
 30
0.0
 10
6.187249899554798
 20
-3.445695818309256
 30
0.0
 10
6.296929651480795
 20
-3.289126231449447
 30
0.0
 10
6.296929651480795
 20
-3.289126231449447
 30
0.0
 10
6.296929651480795
 20
-3.289126231449447
 30
0.0
 10
6.638784806577909
 20
-2.801122182784082
 30
0.0
 10
6.638784806577909
 20
-2.801122182784082
 30
0.0
  0
LWPOLYLINE
  5
8C
330
70
100
AcDbEntity
  8
Layer 1
100
AcDbPolyline
 90
        4
 70
     1
 43
0.0
 10
6.825741782666909
 20
-4.104713305765622
 10
6.451828360307949
 20
-4.104713305765622
 10
6.451828360307949
 20
-3.979713305765623
 10
6.825741782666909
 20
-3.979713305765623
  0
HATCH
  5
8D
330
70
100
AcDbEntity
  8
Layer 1
 62
   143
420
  8370141
440
 33554483
100
AcDbHatch
 10
0.0
 20
0.0
 30
0.0
210
0.0
220
0.0
230
1.0
  2
SOLID
 70
     1
 71
     1
 91
        1
 92
        1
 93
        4
 72
     1
 10
6.825741782666909
 20
-4.104713305765622
 11
6.451828360307949
 21
-4.104713305765622
 72
     1
 10
6.451828360307949
 20
-4.104713305765622
 11
6.451828360307949
 21
-3.979713305765623
 72
     1
 10
6.451828360307949
 20
-3.979713305765623
 11
6.825741782666909
 21
-3.979713305765623
 72
     1
 10
6.825741782666909
 20
-3.979713305765623
 11
6.825741782666909
 21
-4.104713305765622
 97
        1
330
8C
 75
     0
 76
     1
 98
        1
 10
0.0
 20
0.0
450
        0
451
        0
460
0.0
461
0.0
452
        0
462
0.0
453
        0
470

  0
SPLINE
  5
8E
330
70
100
AcDbEntity
  8
Layer 1
 62
    18
420
    65793
370
    18
100
AcDbSpline
210
0.0
220
0.0
230
1.0
 70
    11
 71
     3
 72
    65
 73
    61
 74
     0
 42
0.0000000001
 43
0.0000000001
 40
0.0
 40
0.0
 40
0.0
 40
0.0
 40
1.0
 40
1.0
 40
1.0
 40
2.0
 40
2.0
 40
2.0
 40
3.0
 40
3.0
 40
3.0
 40
4.0
 40
4.0
 40
4.0
 40
5.0
 40
5.0
 40
5.0
 40
6.0
 40
6.0
 40
6.0
 40
7.0
 40
7.0
 40
7.0
 40
8.0
 40
8.0
 40
8.0
 40
9.0
 40
9.0
 40
9.0
 40
10.0
 40
10.0
 40
10.0
 40
11.0
 40
11.0
 40
11.0
 40
12.0
 40
12.0
 40
12.0
 40
13.0
 40
13.0
 40
13.0
 40
14.0
 40
14.0
 40
14.0
 40
15.0
 40
15.0
 40
15.0
 40
16.0
 40
16.0
 40
16.0
 40
17.0
 40
17.0
 40
17.0
 40
18.0
 40
18.0
 40
18.0
 40
19.0
 40
19.0
 40
19.0
 40
20.0
 40
20.0
 40
20.0
 40
20.0
 10
6.54669377603318
 20
-7.214946720879273
 30
0.0
 10
6.54669377603318
 20
-7.214946720879273
 30
0.0
 10
6.797545937016795
 20
-7.573042525729533
 30
0.0
 10
6.797545937016795
 20
-7.573042525729533
 30
0.0
 10
6.797545937016795
 20
-7.573042525729533
 30
0.0
 10
6.929161045930641
 20
-7.760925690877102
 30
0.0
 10
6.929161045930641
 20
-7.760925690877102
 30
0.0
 10
6.929161045930641
 20
-7.760925690877102
 30
0.0
 10
7.148521185565514
 20
-7.828040626858005
 30
0.0
 10
7.148521185565514
 20
-7.828040626858005
 30
0.0
 10
7.148521185565514
 20
-7.828040626858005
 30
0.0
 10
7.566609462746479
 20
-7.955957598700453
 30
0.0
 10
7.566609462746479
 20
-7.955957598700453
 30
0.0
 10
7.566609462746479
 20
-7.955957598700453
 30
0.0
 10
7.303558959545549
 20
-8.305187199394897
 30
0.0
 10
7.303558959545549
 20
-8.305187199394897
 30
0.0
 10
7.303558959545549
 20
-8.305187199394897
 30
0.0
 10
7.165541093198978
 20
-8.488420672430923
 30
0.0
 10
7.165541093198978
 20
-8.488420672430923
 30
0.0
 10
7.165541093198978
 20
-8.488420672430923
 30
0.0
 10
7.169497358118682
 20
-8.717784855644897
 30
0.0
 10
7.169497358118682
 20
-8.717784855644897
 30
0.0
 10
7.169497358118682
 20
-8.717784855644897
 30
0.0
 10
7.17703710726419
 20
-9.154938989759481
 30
0.0
 10
7.17703710726419
 20
-9.154938989759481
 30
0.0
 10
7.17703710726419
 20
-9.154938989759481
 30
0.0
 10
6.763606575444529
 20
-9.01268045161929
 30
0.0
 10
6.763606575444529
 20
-9.01268045161929
 30
0.0
 10
6.763606575444529
 20
-9.01268045161929
 30
0.0
 10
6.54669377603318
 20
-8.938042084920072
 30
0.0
 10
6.54669377603318
 20
-8.938042084920072
 30
0.0
 10
6.54669377603318
 20
-8.938042084920072
 30
0.0
 10
6.32978097662183
 20
-9.01268045161929
 30
0.0
 10
6.32978097662183
 20
-9.01268045161929
 30
0.0
 10
6.32978097662183
 20
-9.01268045161929
 30
0.0
 10
5.916351716367923
 20
-9.154938989759481
 30
0.0
 10
5.916351716367923
 20
-9.154938989759481
 30
0.0
 10
5.916351716367923
 20
-9.154938989759481
 30
0.0
 10
5.923892101296309
 20
-8.717785703355401
 30
0.0
 10
5.923892101296309
 20
-8.717785703355401
 30
0.0
 10
5.923892101296309
 20
-8.717785703355401
 30
0.0
 10
5.927848578143639
 20
-8.488420672430923
 30
0.0
 10
5.927848578143639
 20
-8.488420672430923
 30
0.0
 10
5.927848578143639
 20
-8.488420672430923
 30
0.0
 10
5.789830711797068
 20
-8.305186351684394
 30
0.0
 10
5.789830711797068
 20
-8.305186351684394
 30
0.0
 10
5.789830711797068
 20
-8.305186351684394
 30
0.0
 10
5.526780208596114
 20
-7.955957598700453
 30
0.0
 10
5.526780208596114
 20
-7.955957598700453
 30
0.0
 10
5.526780208596114
 20
-7.955957598700453
 30
0.0
 10
5.944867426138974
 20
-7.828040626858005
 30
0.0
 10
5.944867426138974
 20
-7.828040626858005
 30
0.0
 10
5.944867426138974
 20
-7.828040626858005
 30
0.0
 10
6.164227565773848
 20
-7.760925690877102
 30
0.0
 10
6.164227565773848
 20
-7.760925690877102
 30
0.0
 10
6.164227565773848
 20
-7.760925690877102
 30
0.0
 10
6.295842674687693
 20
-7.57304167801903
 30
0.0
 10
6.295842674687693
 20
-7.57304167801903
 30
0.0
 10
6.295842674687693
 20
-7.57304167801903
 30
0.0
 10
6.54669377603318
 20
-7.214946720879273
 30
0.0
 10
6.54669377603318
 20
-7.214946720879273
 30
0.0
  0
LWPOLYLINE
  5
8F
330
70
100
AcDbEntity
  8
Layer 1
100
AcDbPolyline
 90
        4
 70
     1
 43
0.0
 10
6.702529535534722
 20
-8.324879227053138
 10
6.390860135807845
 20
-8.324879227053138
 10
6.390860135807845
 20
-8.199879227053138
 10
6.702529535534722
 20
-8.199879227053138
  0
HATCH
  5
90
330
70
100
AcDbEntity
  8
Layer 1
 62
   143
420
  8370141
440
 33554483
100
AcDbHatch
 10
0.0
 20
0.0
 30
0.0
210
0.0
220
0.0
230
1.0
  2
SOLID
 70
     1
 71
     1
 91
        1
 92
        1
 93
        4
 72
     1
 10
6.702529535534722
 20
-8.324879227053138
 11
6.390860135807845
 21
-8.324879227053138
 72
     1
 10
6.390860135807845
 20
-8.324879227053138
 11
6.390860135807845
 21
-8.199879227053138
 72
     1
 10
6.390860135807845
 20
-8.199879227053138
 11
6.702529535534722
 21
-8.199879227053138
 72
     1
 10
6.702529535534722
 20
-8.199879227053138
 11
6.702529535534722
 21
-8.324879227053138
 97
        1
330
8F
 75
     0
 76
     1
 98
        1
 10
0.0
 20
0.0
450
        0
451
        0
460
0.0
461
0.0
452
        0
462
0.0
453
        0
470

  0
LWPOLYLINE
  5
91
330
70
100
AcDbEntity
  8
Layer 1
 62
    18
420
        0
370
    18
100
AcDbPolyline
 90
        4
 70
     1
 43
0.0
 10
3.744884019501025
 20
-0.2870708037630089
 10
3.058598409002835
 20
-0.2870708037630089
 10
3.058598409002835
 20
-0.1620708037630089
 10
3.744884019501025
 20
-0.1620708037630089
  0
LWPOLYLINE
  5
92
330
70
100
AcDbEntity
  8
Layer 1
 62
    18
420
        0
370
    18
100
AcDbPolyline
 90
        4
 70
     1
 43
0.0
 10
0.2290027035932225
 20
-1.465887390993101
 10
-0.3964444610970632
 20
-1.465887390993101
 10
-0.3964444610970632
 20
-1.340887390993101
 10
0.2290027035932225
 20
-1.340887390993101
  0
LWPOLYLINE
  5
93
330
70
100
AcDbEntity
  8
Layer 1
 62
    18
420
        0
370
    18
100
AcDbPolyline
 90
        4
 70
     1
 43
0.0
 10
0.1975609858018414
 20
-7.97936382751229
 10
-0.3650027433056569
 20
-7.97936382751229
 10
-0.3650027433056569
 20
-7.85436382751229
 10
0.1975609858018414
 20
-7.85436382751229
  0
LWPOLYLINE
  5
94
330
70
100
AcDbEntity
  8
Layer 1
 62
    18
420
        0
370
    18
100
AcDbPolyline
 90
        4
 70
     1
 43
0.0
 10
3.587305450244432
 20
-7.099119215400403
 10
3.087625156719771
 20
-7.099119215400403
 10
3.087625156719771
 20
-6.974119215400403
 10
3.587305450244432
 20
-6.974119215400403
  0
LWPOLYLINE
  5
95
330
70
100
AcDbEntity
  8
Layer 1
 62
    18
420
        0
370
    18
100
AcDbPolyline
 90
        4
 70
     1
 43
0.0
 10
6.857183500458353
 20
0.5809007598243423
 10
6.420386642516531
 20
0.5809007598243423
 10
6.420386642516531
 20
0.7059007598243423
 10
6.857183500458353
 20
0.7059007598243423
  0
LWPOLYLINE
  5
96
330
70
100
AcDbEntity
  8
Layer 1
 62
    18
420
        0
370
    18
100
AcDbPolyline
 90
        4
 70
     1
 43
0.0
 10
6.825741782666909
 20
-4.104713305765622
 10
6.451828360307949
 20
-4.104713305765622
 10
6.451828360307949
 20
-3.979713305765623
 10
6.825741782666909
 20
-3.979713305765623
  0
LWPOLYLINE
  5
97
330
70
100
AcDbEntity
  8
Layer 1
 62
    18
420
        0
370
    18
100
AcDbPolyline
 90
        4
 70
     1
 43
0.0
 10
6.702529535534722
 20
-8.324879227053138
 10
6.390860135807845
 20
-8.324879227053138
 10
6.390860135807845
 20
-8.199879227053138
 10
6.702529535534722
 20
-8.199879227053138
  0
LWPOLYLINE
  5
98
330
70
100
AcDbEntity
  8
Layer 1
 62
    18
420
    65793
370
    18
100
AcDbPolyline
 90
       10
 70
     1
 43
0.0
 10
5.960280208596107
 20
-12.24728617101027
 10
6.062151041929433
 20
-12.63002643911922
 10
6.393776041929438
 20
-12.62925005024994
 10
6.125110764151663
 20
-12.86502643318262
 10
6.22819826415169
 20
-13.24728614574815
 10
5.960280208596107
 20
-13.01026254062475
 10
5.692363541929428
 20
-13.24728614574815
 10
5.795449653040551
 20
-12.86502643318262
 10
5.526780208596114
 20
-12.62925005024994
 10
5.858410764151686
 20
-12.63002643911922
  0
LWPOLYLINE
  5
99
330
70
100
AcDbEntity
  8
Layer 1
 62
    18
420
    65793
370
    18
100
AcDbPolyline
 90
       10
 70
     1
 43
0.0
 10
4.817834199627339
 20
-12.24728617101027
 10
4.919705032960664
 20
-12.63002643911922
 10
5.25133003296067
 20
-12.62925005024994
 10
4.982664755182895
 20
-12.86502643318262
 10
5.085752255182923
 20
-13.24728614574815
 10
4.817834199627339
 20
-13.01026254062475
 10
4.549917532960661
 20
-13.24728614574815
 10
4.653003644071784
 20
-12.86502643318262
 10
4.384334199627397
 20
-12.62925005024994
 10
4.715964755182918
 20
-12.63002643911922
  0
SPLINE
  5
9A
330
70
100
AcDbEntity
  8
Layer 1
 62
    18
420
    65793
370
    18
100
AcDbSpline
210
0.0
220
0.0
230
1.0
 70
    11
 71
     3
 72
    65
 73
    61
 74
     0
 42
0.0000000001
 43
0.0000000001
 40
0.0
 40
0.0
 40
0.0
 40
0.0
 40
1.0
 40
1.0
 40
1.0
 40
2.0
 40
2.0
 40
2.0
 40
3.0
 40
3.0
 40
3.0
 40
4.0
 40
4.0
 40
4.0
 40
5.0
 40
5.0
 40
5.0
 40
6.0
 40
6.0
 40
6.0
 40
7.0
 40
7.0
 40
7.0
 40
8.0
 40
8.0
 40
8.0
 40
9.0
 40
9.0
 40
9.0
 40
10.0
 40
10.0
 40
10.0
 40
11.0
 40
11.0
 40
11.0
 40
12.0
 40
12.0
 40
12.0
 40
13.0
 40
13.0
 40
13.0
 40
14.0
 40
14.0
 40
14.0
 40
15.0
 40
15.0
 40
15.0
 40
16.0
 40
16.0
 40
16.0
 40
17.0
 40
17.0
 40
17.0
 40
18.0
 40
18.0
 40
18.0
 40
19.0
 40
19.0
 40
19.0
 40
20.0
 40
20.0
 40
20.0
 40
20.0
 10
-0.0837212496252404
 20
-9.206369830925293
 30
0.0
 10
-0.0837212496252404
 20
-9.206369830925293
 30
0.0
 10
0.4856432981042519
 20
-10.01914703225993
 30
0.0
 10
0.4856432981042519
 20
-10.01914703225993
 30
0.0
 10
0.4856432981042519
 20
-10.01914703225993
 30
0.0
 10
0.540482962139625
 20
-10.09743224954508
 30
0.0
 10
0.540482962139625
 20
-10.09743224954508
 30
0.0
 10
0.540482962139625
 20
-10.09743224954508
 30
0.0
 10
0.6318828966963742
 20
-10.12539652363362
 30
0.0
 10
0.6318828966963742
 20
-10.12539652363362
 30
0.0
 10
0.6318828966963742
 20
-10.12539652363362
 30
0.0
 10
1.580826458674146
 20
-10.41573313252034
 30
0.0
 10
1.580826458674146
 20
-10.41573313252034
 30
0.0
 10
1.580826458674146
 20
-10.41573313252034
 30
0.0
 10
0.9837717652401856
 20
-11.20839077276557
 30
0.0
 10
0.9837717652401856
 20
-11.20839077276557
 30
0.0
 10
0.9837717652401856
 20
-11.20839077276557
 30
0.0
 10
0.926264780105637
 20
-11.28473812383979
 30
0.0
 10
0.926264780105637
 20
-11.28473812383979
 30
0.0
 10
0.926264780105637
 20
-11.28473812383979
 30
0.0
 10
0.927912729324387
 20
-11.38030646286974
 30
0.0
 10
0.927912729324387
 20
-11.38030646286974
 30
0.0
 10
0.927912729324387
 20
-11.38030646286974
 30
0.0
 10
0.9450260970408583
 20
-12.37252193731635
 30
0.0
 10
0.9450260970408583
 20
-12.37252193731635
 30
0.0
 10
0.9450260970408583
 20
-12.37252193731635
 30
0.0
 10
0.0066593130510834
 20
-12.04963663593831
 30
0.0
 10
0.0066593130510834
 20
-12.04963663593831
 30
0.0
 10
0.0066593130510834
 20
-12.04963663593831
 30
0.0
 10
-0.0837212496252404
 20
-12.01853752840793
 30
0.0
 10
-0.0837212496252404
 20
-12.01853752840793
 30
0.0
 10
-0.0837212496252404
 20
-12.01853752840793
 30
0.0
 10
-0.1741018123015642
 20
-12.04963663593831
 30
0.0
 10
-0.1741018123015642
 20
-12.04963663593831
 30
0.0
 10
-0.1741018123015642
 20
-12.04963663593831
 30
0.0
 10
-1.112467960508486
 20
-12.37252193731635
 30
0.0
 10
-1.112467960508486
 20
-12.37252193731635
 30
0.0
 10
-1.112467960508486
 20
-12.37252193731635
 30
0.0
 10
-1.095353957009137
 20
-11.38030646286974
 30
0.0
 10
-1.095353957009137
 20
-11.38030646286974
 30
0.0
 10
-1.095353957009137
 20
-11.38030646286974
 30
0.0
 10
-1.093706007790387
 20
-11.28473812383979
 30
0.0
 10
-1.093706007790387
 20
-11.28473812383979
 30
0.0
 10
-1.093706007790387
 20
-11.28473812383979
 30
0.0
 10
-1.151212992924936
 20
-11.20838992505507
 30
0.0
 10
-1.151212992924936
 20
-11.20838992505507
 30
0.0
 10
-1.151212992924936
 20
-11.20838992505507
 30
0.0
 10
-1.748268216177974
 20
-10.41573313252034
 30
0.0
 10
-1.748268216177974
 20
-10.41573313252034
 30
0.0
 10
-1.748268216177974
 20
-10.41573313252034
 30
0.0
 10
-0.799325395946855
 20
-10.12539652363362
 30
0.0
 10
-0.799325395946855
 20
-10.12539652363362
 30
0.0
 10
-0.799325395946855
 20
-10.12539652363362
 30
0.0
 10
-0.7079254613901059
 20
-10.09743224954508
 30
0.0
 10
-0.7079254613901059
 20
-10.09743224954508
 30
0.0
 10
-0.7079254613901059
 20
-10.09743224954508
 30
0.0
 10
-0.6530857973547325
 20
-10.01914703225993
 30
0.0
 10
-0.6530857973547325
 20
-10.01914703225993
 30
0.0
 10
-0.6530857973547325
 20
-10.01914703225993
 30
0.0
 10
-0.0837212496252404
 20
-9.206369830925293
 30
0.0
 10
-0.0837212496252404
 20
-9.206369830925293
 30
0.0
  0
LWPOLYLINE
  5
9B
330
70
100
AcDbEntity
  8
Layer 1
 62
    18
420
        0
370
    18
100
AcDbPolyline
 90
        4
 70
     1
 43
0.0
 10
0.1975609858018288
 20
-10.9941079197814
 10
-0.3650027433056695
 20
-10.9941079197814
 10
-0.3650027433056695
 20
-10.8691079197814
 10
0.1975609858018288
 20
-10.8691079197814
  0
SPLINE
  5
9C
330
70
100
AcDbEntity
  8
Layer 1
 62
    18
420
    65793
370
    18
100
AcDbSpline
210
0.0
220
0.0
230
1.0
 70
    11
 71
     3
 72
    65
 73
    61
 74
     0
 42
0.0000000001
 43
0.0000000001
 40
0.0
 40
0.0
 40
0.0
 40
0.0
 40
1.0
 40
1.0
 40
1.0
 40
2.0
 40
2.0
 40
2.0
 40
3.0
 40
3.0
 40
3.0
 40
4.0
 40
4.0
 40
4.0
 40
5.0
 40
5.0
 40
5.0
 40
6.0
 40
6.0
 40
6.0
 40
7.0
 40
7.0
 40
7.0
 40
8.0
 40
8.0
 40
8.0
 40
9.0
 40
9.0
 40
9.0
 40
10.0
 40
10.0
 40
10.0
 40
11.0
 40
11.0
 40
11.0
 40
12.0
 40
12.0
 40
12.0
 40
13.0
 40
13.0
 40
13.0
 40
14.0
 40
14.0
 40
14.0
 40
15.0
 40
15.0
 40
15.0
 40
16.0
 40
16.0
 40
16.0
 40
17.0
 40
17.0
 40
17.0
 40
18.0
 40
18.0
 40
18.0
 40
19.0
 40
19.0
 40
19.0
 40
20.0
 40
20.0
 40
20.0
 40
20.0
 10
3.337465091554475
 20
-8.286283659376824
 30
0.0
 10
3.337465091554475
 20
-8.286283659376824
 30
0.0
 10
3.815825373604714
 20
-8.969150921475348
 30
0.0
 10
3.815825373604714
 20
-8.969150921475348
 30
0.0
 10
3.815825373604714
 20
-8.969150921475348
 30
0.0
 10
3.89260166619369
 20
-9.078749717048266
 30
0.0
 10
3.89260166619369
 20
-9.078749717048266
 30
0.0
 10
3.89260166619369
 20
-9.078749717048266
 30
0.0
 10
4.020561447416563
 20
-9.117900378940626
 30
0.0
 10
4.020561447416563
 20
-9.117900378940626
 30
0.0
 10
4.020561447416563
 20
-9.117900378940626
 30
0.0
 10
4.817832116294034
 20
-9.361831619446268
 30
0.0
 10
4.817832116294034
 20
-9.361831619446268
 30
0.0
 10
4.817832116294034
 20
-9.361831619446268
 30
0.0
 10
4.316207479114129
 20
-10.02779553410555
 30
0.0
 10
4.316207479114129
 20
-10.02779553410555
 30
0.0
 10
4.316207479114129
 20
-10.02779553410555
 30
0.0
 10
4.235697445612635
 20
-10.13468165606739
 30
0.0
 10
4.235697445612635
 20
-10.13468165606739
 30
0.0
 10
4.235697445612635
 20
-10.13468165606739
 30
0.0
 10
4.238005125530713
 20
-10.26847665254091
 30
0.0
 10
4.238005125530713
 20
-10.26847665254091
 30
0.0
 10
4.238005125530713
 20
-10.26847665254091
 30
0.0
 10
4.252383143380105
 20
-11.10210329370844
 30
0.0
 10
4.252383143380105
 20
-11.10210329370844
 30
0.0
 10
4.252383143380105
 20
-11.10210329370844
 30
0.0
 10
3.463997540217127
 20
-10.83082576007129
 30
0.0
 10
3.463997540217127
 20
-10.83082576007129
 30
0.0
 10
3.463997540217127
 20
-10.83082576007129
 30
0.0
 10
3.337465091554475
 20
-10.78728650090245
 30
0.0
 10
3.337465091554475
 20
-10.78728650090245
 30
0.0
 10
3.337465091554475
 20
-10.78728650090245
 30
0.0
 10
3.210932642891823
 20
-10.83082576007129
 30
0.0
 10
3.210932642891823
 20
-10.83082576007129
 30
0.0
 10
3.210932642891823
 20
-10.83082576007129
 30
0.0
 10
2.422547675511724
 20
-11.10210329370844
 30
0.0
 10
2.422547675511724
 20
-11.10210329370844
 30
0.0
 10
2.422547675511724
 20
-11.10210329370844
 30
0.0
 10
2.43692654107162
 20
-10.26847750025141
 30
0.0
 10
2.43692654107162
 20
-10.26847750025141
 30
0.0
 10
2.43692654107162
 20
-10.26847750025141
 30
0.0
 10
2.439234432917323
 20
-10.13468165606739
 30
0.0
 10
2.439234432917323
 20
-10.13468165606739
 30
0.0
 10
2.439234432917323
 20
-10.13468165606739
 30
0.0
 10
2.358724399415804
 20
-10.02779553410555
 30
0.0
 10
2.358724399415804
 20
-10.02779553410555
 30
0.0
 10
2.358724399415804
 20
-10.02779553410555
 30
0.0
 10
1.857098490670144
 20
-9.361830771735766
 30
0.0
 10
1.857098490670144
 20
-9.361830771735766
 30
0.0
 10
1.857098490670144
 20
-9.361830771735766
 30
0.0
 10
2.654368735692388
 20
-9.117900378940626
 30
0.0
 10
2.654368735692388
 20
-9.117900378940626
 30
0.0
 10
2.654368735692388
 20
-9.117900378940626
 30
0.0
 10
2.782328516915261
 20
-9.078749717048266
 30
0.0
 10
2.782328516915261
 20
-9.078749717048266
 30
0.0
 10
2.782328516915261
 20
-9.078749717048266
 30
0.0
 10
2.859104809504262
 20
-8.969150921475348
 30
0.0
 10
2.859104809504262
 20
-8.969150921475348
 30
0.0
 10
2.859104809504262
 20
-8.969150921475348
 30
0.0
 10
3.337465091554475
 20
-8.286283659376824
 30
0.0
 10
3.337465091554475
 20
-8.286283659376824
 30
0.0
  0
LWPOLYLINE
  5
9D
330
70
100
AcDbEntity
  8
Layer 1
 62
    18
420
        0
370
    18
100
AcDbPolyline
 90
        4
 70
     1
 43
0.0
 10
3.587305450244406
 20
-9.880362283714728
 10
3.087625156719746
 20
-9.880362283714728
 10
3.087625156719746
 20
-9.755362283714728
 10
3.587305450244406
 20
-9.755362283714728
  0
SPLINE
  5
9E
330
70
100
AcDbEntity
  8
Layer 1
 62
    18
420
    65793
370
    18
100
AcDbSpline
210
0.0
220
0.0
230
1.0
 70
    11
 71
     3
 72
    65
 73
    61
 74
     0
 42
0.0000000001
 43
0.0000000001
 40
0.0
 40
0.0
 40
0.0
 40
0.0
 40
1.0
 40
1.0
 40
1.0
 40
2.0
 40
2.0
 40
2.0
 40
3.0
 40
3.0
 40
3.0
 40
4.0
 40
4.0
 40
4.0
 40
5.0
 40
5.0
 40
5.0
 40
6.0
 40
6.0
 40
6.0
 40
7.0
 40
7.0
 40
7.0
 40
8.0
 40
8.0
 40
8.0
 40
9.0
 40
9.0
 40
9.0
 40
10.0
 40
10.0
 40
10.0
 40
11.0
 40
11.0
 40
11.0
 40
12.0
 40
12.0
 40
12.0
 40
13.0
 40
13.0
 40
13.0
 40
14.0
 40
14.0
 40
14.0
 40
15.0
 40
15.0
 40
15.0
 40
16.0
 40
16.0
 40
16.0
 40
17.0
 40
17.0
 40
17.0
 40
18.0
 40
18.0
 40
18.0
 40
19.0
 40
19.0
 40
19.0
 40
20.0
 40
20.0
 40
20.0
 40
20.0
 10
-0.0837206668242693
 20
-2.839670265898437
 30
0.0
 10
-0.0837206668242693
 20
-2.839670265898437
 30
0.0
 10
0.576647298873973
 20
-3.782357406469195
 30
0.0
 10
0.576647298873973
 20
-3.782357406469195
 30
0.0
 10
0.576647298873973
 20
-3.782357406469195
 30
0.0
 10
0.609551393993873
 20
-3.829328197756088
 30
0.0
 10
0.609551393993873
 20
-3.829328197756088
 30
0.0
 10
0.609551393993873
 20
-3.829328197756088
 30
0.0
 10
0.664391693812124
 20
-3.846106931751314
 30
0.0
 10
0.664391693812124
 20
-3.846106931751314
 30
0.0
 10
0.664391693812124
 20
-3.846106931751314
 30
0.0
 10
1.765007936962622
 20
-4.182848061308606
 30
0.0
 10
1.765007936962622
 20
-4.182848061308606
 30
0.0
 10
1.765007936962622
 20
-4.182848061308606
 30
0.0
 10
1.072522975346954
 20
-5.102201122560763
 30
0.0
 10
1.072522975346954
 20
-5.102201122560763
 30
0.0
 10
1.072522975346954
 20
-5.102201122560763
 30
0.0
 10
1.038019250507002
 20
-5.148009702747382
 30
0.0
 10
1.038019250507002
 20
-5.148009702747382
 30
0.0
 10
1.038019250507002
 20
-5.148009702747382
 30
0.0
 10
1.039007892881676
 20
-5.205350536623263
 30
0.0
 10
1.039007892881676
 20
-5.205350536623263
 30
0.0
 10
1.039007892881676
 20
-5.205350536623263
 30
0.0
 10
1.058856398537601
 20
-6.35615484434897
 30
0.0
 10
1.058856398537601
 20
-6.35615484434897
 30
0.0
 10
1.058856398537601
 20
-6.35615484434897
 30
0.0
 10
-0.0294922020618995
 20
-5.981661775230046
 30
0.0
 10
-0.0294922020618995
 20
-5.981661775230046
 30
0.0
 10
-0.0294922020618995
 20
-5.981661775230046
 30
0.0
 10
-0.0837206668242693
 20
-5.963001971627615
 30
0.0
 10
-0.0837206668242693
 20
-5.963001971627615
 30
0.0
 10
-0.0837206668242693
 20
-5.963001971627615
 30
0.0
 10
-0.137949131586639
 20
-5.981661775230046
 30
0.0
 10
-0.137949131586639
 20
-5.981661775230046
 30
0.0
 10
-0.137949131586639
 20
-5.981661775230046
 30
0.0
 10
-1.226297520258514
 20
-6.35615484434897
 30
0.0
 10
-1.226297520258514
 20
-6.35615484434897
 30
0.0
 10
-1.226297520258514
 20
-6.35615484434897
 30
0.0
 10
-1.20644795496446
 20
-5.205350536623263
 30
0.0
 10
-1.20644795496446
 20
-5.205350536623263
 30
0.0
 10
-1.20644795496446
 20
-5.205350536623263
 30
0.0
 10
-1.205459100662159
 20
-5.148009702747382
 30
0.0
 10
-1.205459100662159
 20
-5.148009702747382
 30
0.0
 10
-1.205459100662159
 20
-5.148009702747382
 30
0.0
 10
-1.239963885140241
 20
-5.102201122560763
 30
0.0
 10
-1.239963885140241
 20
-5.102201122560763
 30
0.0
 10
-1.239963885140241
 20
-5.102201122560763
 30
0.0
 10
-1.932449694466413
 20
-4.182848061308606
 30
0.0
 10
-1.932449694466413
 20
-4.182848061308606
 30
0.0
 10
-1.932449694466413
 20
-4.182848061308606
 30
0.0
 10
-0.8318323916777847
 20
-3.846106931751314
 30
0.0
 10
-0.8318323916777847
 20
-3.846106931751314
 30
0.0
 10
-0.8318323916777847
 20
-3.846106931751314
 30
0.0
 10
-0.7769920918595341
 20
-3.829328197756088
 30
0.0
 10
-0.7769920918595341
 20
-3.829328197756088
 30
0.0
 10
-0.7769920918595341
 20
-3.829328197756088
 30
0.0
 10
-0.7440879967396338
 20
-3.782357406469195
 30
0.0
 10
-0.7440879967396338
 20
-3.782357406469195
 30
0.0
 10
-0.7440879967396338
 20
-3.782357406469195
 30
0.0
 10
-0.0837206668242693
 20
-2.839670265898437
 30
0.0
 10
-0.0837206668242693
 20
-2.839670265898437
 30
0.0
  0
LWPOLYLINE
  5
9F
330
70
100
AcDbEntity
  8
Layer 1
 62
    18
420
        0
370
    18
100
AcDbPolyline
 90
        4
 70
     1
 43
0.0
 10
0.2290027035932225
 20
-4.830314009661757
 10
-0.3964444610970632
 20
-4.830314009661757
 10
-0.3964444610970632
 20
-4.705314009661757
 10
0.2290027035932225
 20
-4.705314009661757
  0
SPLINE
  5
A0
330
70
100
AcDbEntity
  8
Layer 1
 62
    18
420
    65793
370
    18
100
AcDbSpline
210
0.0
220
0.0
230
1.0
 70
    11
 71
     3
 72
    65
 73
    61
 74
     0
 42
0.0000000001
 43
0.0000000001
 40
0.0
 40
0.0
 40
0.0
 40
0.0
 40
1.0
 40
1.0
 40
1.0
 40
2.0
 40
2.0
 40
2.0
 40
3.0
 40
3.0
 40
3.0
 40
4.0
 40
4.0
 40
4.0
 40
5.0
 40
5.0
 40
5.0
 40
6.0
 40
6.0
 40
6.0
 40
7.0
 40
7.0
 40
7.0
 40
8.0
 40
8.0
 40
8.0
 40
9.0
 40
9.0
 40
9.0
 40
10.0
 40
10.0
 40
10.0
 40
11.0
 40
11.0
 40
11.0
 40
12.0
 40
12.0
 40
12.0
 40
13.0
 40
13.0
 40
13.0
 40
14.0
 40
14.0
 40
14.0
 40
15.0
 40
15.0
 40
15.0
 40
16.0
 40
16.0
 40
16.0
 40
17.0
 40
17.0
 40
17.0
 40
18.0
 40
18.0
 40
18.0
 40
19.0
 40
19.0
 40
19.0
 40
20.0
 40
20.0
 40
20.0
 40
20.0
 10
3.401741002324304
 20
-1.771565322116682
 30
0.0
 10
3.401741002324304
 20
-1.771565322116682
 30
0.0
 10
4.153113021774174
 20
-2.84416240192354
 30
0.0
 10
4.153113021774174
 20
-2.84416240192354
 30
0.0
 10
4.153113021774174
 20
-2.84416240192354
 30
0.0
 10
4.164081336050975
 20
-2.859818767212168
 30
0.0
 10
4.164081336050975
 20
-2.859818767212168
 30
0.0
 10
4.164081336050975
 20
-2.859818767212168
 30
0.0
 10
4.182360729564972
 20
-2.865411113403574
 30
0.0
 10
4.182360729564972
 20
-2.865411113403574
 30
0.0
 10
4.182360729564972
 20
-2.865411113403574
 30
0.0
 10
5.43465081949009
 20
-3.248558459052446
 30
0.0
 10
5.43465081949009
 20
-3.248558459052446
 30
0.0
 10
5.43465081949009
 20
-3.248558459052446
 30
0.0
 10
4.646736331439417
 20
-4.294604398180088
 30
0.0
 10
4.646736331439417
 20
-4.294604398180088
 30
0.0
 10
4.646736331439417
 20
-4.294604398180088
 30
0.0
 10
4.635235231111184
 20
-4.30987420747912
 30
0.0
 10
4.635235231111184
 20
-4.30987420747912
 30
0.0
 10
4.635235231111184
 20
-4.30987420747912
 30
0.0
 10
4.63556446067797
 20
-4.328987536200921
 30
0.0
 10
4.63556446067797
 20
-4.328987536200921
 30
0.0
 10
4.63556446067797
 20
-4.328987536200921
 30
0.0
 10
4.65814821023716
 20
-5.638381524916186
 30
0.0
 10
4.65814821023716
 20
-5.638381524916186
 30
0.0
 10
4.65814821023716
 20
-5.638381524916186
 30
0.0
 10
3.41981736917272
 20
-5.212280688056377
 30
0.0
 10
3.41981736917272
 20
-5.212280688056377
 30
0.0
 10
3.41981736917272
 20
-5.212280688056377
 30
0.0
 10
3.401741002324304
 20
-5.206061036092402
 30
0.0
 10
3.401741002324304
 20
-5.206061036092402
 30
0.0
 10
3.401741002324304
 20
-5.206061036092402
 30
0.0
 10
3.383664635475888
 20
-5.212280688056377
 30
0.0
 10
3.383664635475888
 20
-5.212280688056377
 30
0.0
 10
3.383664635475888
 20
-5.212280688056377
 30
0.0
 10
2.145334006339049
 20
-5.638381524916186
 30
0.0
 10
2.145334006339049
 20
-5.638381524916186
 30
0.0
 10
2.145334006339049
 20
-5.638381524916186
 30
0.0
 10
2.16791913342782
 20
-4.328987536200921
 30
0.0
 10
2.16791913342782
 20
-4.328987536200921
 30
0.0
 10
2.16791913342782
 20
-4.328987536200921
 30
0.0
 10
2.168248468958419
 20
-4.30987420747912
 30
0.0
 10
2.168248468958419
 20
-4.30987420747912
 30
0.0
 10
2.168248468958419
 20
-4.30987420747912
 30
0.0
 10
2.15674715670256
 20
-4.294604398180088
 30
0.0
 10
2.15674715670256
 20
-4.294604398180088
 30
0.0
 10
2.15674715670256
 20
-4.294604398180088
 30
0.0
 10
1.368831609013757
 20
-3.248558459052446
 30
0.0
 10
1.368831609013757
 20
-3.248558459052446
 30
0.0
 10
1.368831609013757
 20
-3.248558459052446
 30
0.0
 10
2.621121698938888
 20
-2.865411113403574
 30
0.0
 10
2.621121698938888
 20
-2.865411113403574
 30
0.0
 10
2.621121698938888
 20
-2.865411113403574
 30
0.0
 10
2.639401728235763
 20
-2.859818767212168
 30
0.0
 10
2.639401728235763
 20
-2.859818767212168
 30
0.0
 10
2.639401728235763
 20
-2.859818767212168
 30
0.0
 10
2.650369406729673
 20
-2.84416240192354
 30
0.0
 10
2.650369406729673
 20
-2.84416240192354
 30
0.0
 10
2.650369406729673
 20
-2.84416240192354
 30
0.0
 10
3.401741002324304
 20
-1.771565322116682
 30
0.0
 10
3.401741002324304
 20
-1.771565322116682
 30
0.0
  0
LWPOLYLINE
  5
A1
330
70
100
AcDbEntity
  8
Layer 1
 62
    18
420
        0
370
    18
100
AcDbPolyline
 90
        4
 70
     1
 43
0.0
 10
3.744884019501
 20
-3.946621492298769
 10
3.05859840900281
 20
-3.946621492298769
 10
3.05859840900281
 20
-3.821621492298769
 10
3.744884019501
 20
-3.821621492298769
  0
SPLINE
  5
A2
330
70
100
AcDbEntity
  8
Layer 1
 62
    18
420
    65793
370
    18
100
AcDbSpline
210
0.0
220
0.0
230
1.0
 70
    11
 71
     3
 72
    65
 73
    61
 74
     0
 42
0.0000000001
 43
0.0000000001
 40
0.0
 40
0.0
 40
0.0
 40
0.0
 40
1.0
 40
1.0
 40
1.0
 40
2.0
 40
2.0
 40
2.0
 40
3.0
 40
3.0
 40
3.0
 40
4.0
 40
4.0
 40
4.0
 40
5.0
 40
5.0
 40
5.0
 40
6.0
 40
6.0
 40
6.0
 40
7.0
 40
7.0
 40
7.0
 40
8.0
 40
8.0
 40
8.0
 40
9.0
 40
9.0
 40
9.0
 40
10.0
 40
10.0
 40
10.0
 40
11.0
 40
11.0
 40
11.0
 40
12.0
 40
12.0
 40
12.0
 40
13.0
 40
13.0
 40
13.0
 40
14.0
 40
14.0
 40
14.0
 40
15.0
 40
15.0
 40
15.0
 40
16.0
 40
16.0
 40
16.0
 40
17.0
 40
17.0
 40
17.0
 40
18.0
 40
18.0
 40
18.0
 40
19.0
 40
19.0
 40
19.0
 40
20.0
 40
20.0
 40
20.0
 40
20.0
 10
6.63878517745128
 20
-0.4060862576970471
 30
0.0
 10
6.63878517745128
 20
-0.4060862576970471
 30
0.0
 10
7.026142677315647
 20
-0.9590452759804545
 30
0.0
 10
7.026142677315647
 20
-0.9590452759804545
 30
0.0
 10
7.026142677315647
 20
-0.9590452759804545
 30
0.0
 10
7.124854326892469
 20
-1.099957649841144
 30
0.0
 10
7.124854326892469
 20
-1.099957649841144
 30
0.0
 10
7.124854326892469
 20
-1.099957649841144
 30
0.0
 10
7.289373530926215
 20
-1.150294699537324
 30
0.0
 10
7.289373530926215
 20
-1.150294699537324
 30
0.0
 10
7.289373530926215
 20
-1.150294699537324
 30
0.0
 10
7.934970988811932
 20
-1.347820571661878
 30
0.0
 10
7.934970988811932
 20
-1.347820571661878
 30
0.0
 10
7.934970988811932
 20
-1.347820571661878
 30
0.0
 10
7.528776301922309
 20
-1.887089913024725
 30
0.0
 10
7.528776301922309
 20
-1.887089913024725
 30
0.0
 10
7.528776301922309
 20
-1.887089913024725
 30
0.0
 10
7.425263220053819
 20
-2.02451480587413
 30
0.0
 10
7.425263220053819
 20
-2.02451480587413
 30
0.0
 10
7.425263220053819
 20
-2.02451480587413
 30
0.0
 10
7.428230206815972
 20
-2.196537307501734
 30
0.0
 10
7.428230206815972
 20
-2.196537307501734
 30
0.0
 10
7.428230206815972
 20
-2.196537307501734
 30
0.0
 10
7.439873086725911
 20
-2.871575963100705
 30
0.0
 10
7.439873086725911
 20
-2.871575963100705
 30
0.0
 10
7.439873086725911
 20
-2.871575963100705
 30
0.0
 10
6.801469935955512
 20
-2.651905349493934
 30
0.0
 10
6.801469935955512
 20
-2.651905349493934
 30
0.0
 10
6.801469935955512
 20
-2.651905349493934
 30
0.0
 10
6.638784965523655
 20
-2.595926786397133
 30
0.0
 10
6.638784965523655
 20
-2.595926786397133
 30
0.0
 10
6.638784965523655
 20
-2.595926786397133
 30
0.0
 10
6.476099995091797
 20
-2.651905349493934
 30
0.0
 10
6.476099995091797
 20
-2.651905349493934
 30
0.0
 10
6.476099995091797
 20
-2.651905349493934
 30
0.0
 10
5.837697268176649
 20
-2.871575963100705
 30
0.0
 10
5.837697268176649
 20
-2.871575963100705
 30
0.0
 10
5.837697268176649
 20
-2.871575963100705
 30
0.0
 10
5.84934057194184
 20
-2.196537307501734
 30
0.0
 10
5.84934057194184
 20
-2.196537307501734
 30
0.0
 10
5.84934057194184
 20
-2.196537307501734
 30
0.0
 10
5.852307558703992
 20
-2.02451480587413
 30
0.0
 10
5.852307558703992
 20
-2.02451480587413
 30
0.0
 10
5.852307558703992
 20
-2.02451480587413
 30
0.0
 10
5.748794476835503
 20
-1.887089913024725
 30
0.0
 10
5.748794476835503
 20
-1.887089913024725
 30
0.0
 10
5.748794476835503
 20
-1.887089913024725
 30
0.0
 10
5.342599154162977
 20
-1.347819723951374
 30
0.0
 10
5.342599154162977
 20
-1.347819723951374
 30
0.0
 10
5.342599154162977
 20
-1.347819723951374
 30
0.0
 10
5.988196400121093
 20
-1.150294699537324
 30
0.0
 10
5.988196400121093
 20
-1.150294699537324
 30
0.0
 10
5.988196400121093
 20
-1.150294699537324
 30
0.0
 10
6.152716451865343
 20
-1.099957649841144
 30
0.0
 10
6.152716451865343
 20
-1.099957649841144
 30
0.0
 10
6.152716451865343
 20
-1.099957649841144
 30
0.0
 10
6.251428101442165
 20
-0.9590452759804545
 30
0.0
 10
6.251428101442165
 20
-0.9590452759804545
 30
0.0
 10
6.251428101442165
 20
-0.9590452759804545
 30
0.0
 10
6.63878517745128
 20
-0.4060862576970471
 30
0.0
 10
6.63878517745128
 20
-0.4060862576970471
 30
0.0
  0
LWPOLYLINE
  5
A3
330
70
100
AcDbEntity
  8
Layer 1
 62
    18
420
        0
370
    18
100
AcDbPolyline
 90
        4
 70
     1
 43
0.0
 10
6.857183500458353
 20
-1.806507112937727
 10
6.420386642516531
 20
-1.806507112937727
 10
6.420386642516531
 20
-1.681507112937727
 10
6.857183500458353
 20
-1.681507112937727
  0
SPLINE
  5
A4
330
70
100
AcDbEntity
  8
Layer 1
 62
    18
420
    65793
370
    18
100
AcDbSpline
210
0.0
220
0.0
230
1.0
 70
    11
 71
     3
 72
    65
 73
    61
 74
     0
 42
0.0000000001
 43
0.0000000001
 40
0.0
 40
0.0
 40
0.0
 40
0.0
 40
1.0
 40
1.0
 40
1.0
 40
2.0
 40
2.0
 40
2.0
 40
3.0
 40
3.0
 40
3.0
 40
4.0
 40
4.0
 40
4.0
 40
5.0
 40
5.0
 40
5.0
 40
6.0
 40
6.0
 40
6.0
 40
7.0
 40
7.0
 40
7.0
 40
8.0
 40
8.0
 40
8.0
 40
9.0
 40
9.0
 40
9.0
 40
10.0
 40
10.0
 40
10.0
 40
11.0
 40
11.0
 40
11.0
 40
12.0
 40
12.0
 40
12.0
 40
13.0
 40
13.0
 40
13.0
 40
14.0
 40
14.0
 40
14.0
 40
15.0
 40
15.0
 40
15.0
 40
16.0
 40
16.0
 40
16.0
 40
17.0
 40
17.0
 40
17.0
 40
18.0
 40
18.0
 40
18.0
 40
19.0
 40
19.0
 40
19.0
 40
20.0
 40
20.0
 40
20.0
 40
20.0
 10
6.638784382722683
 20
-5.018684204278441
 30
0.0
 10
6.638784382722683
 20
-5.018684204278441
 30
0.0
 10
6.935138040763048
 20
-5.441734131036254
 30
0.0
 10
6.935138040763048
 20
-5.441734131036254
 30
0.0
 10
6.935138040763048
 20
-5.441734131036254
 30
0.0
 10
7.055786318893473
 20
-5.613960930895195
 30
0.0
 10
7.055786318893473
 20
-5.613960930895195
 30
0.0
 10
7.055786318893473
 20
-5.613960930895195
 30
0.0
 10
7.256865793448595
 20
-5.675481825263684
 30
0.0
 10
7.256865793448595
 20
-5.675481825263684
 30
0.0
 10
7.256865793448595
 20
-5.675481825263684
 30
0.0
 10
7.750790358233997
 20
-5.826602329007173
 30
0.0
 10
7.750790358233997
 20
-5.826602329007173
 30
0.0
 10
7.750790358233997
 20
-5.826602329007173
 30
0.0
 10
7.440025091815565
 20
-6.239178792494587
 30
0.0
 10
7.440025091815565
 20
-6.239178792494587
 30
0.0
 10
7.440025091815565
 20
-6.239178792494587
 30
0.0
 10
7.313509385435357
 20
-6.407142456231566
 30
0.0
 10
7.313509385435357
 20
-6.407142456231566
 30
0.0
 10
7.313509385435357
 20
-6.407142456231566
 30
0.0
 10
7.317135255186333
 20
-6.617391615302746
 30
0.0
 10
7.317135255186333
 20
-6.617391615302746
 30
0.0
 10
7.317135255186333
 20
-6.617391615302746
 30
0.0
 10
7.326042573301568
 20
-7.133841437622625
 30
0.0
 10
7.326042573301568
 20
-7.133841437622625
 30
0.0
 10
7.326042573301568
 20
-7.133841437622625
 30
0.0
 10
6.837621451068494
 20
-6.965779439467243
 30
0.0
 10
6.837621451068494
 20
-6.965779439467243
 30
0.0
 10
6.837621451068494
 20
-6.965779439467243
 30
0.0
 10
6.638784382722683
 20
-6.897360724732
 30
0.0
 10
6.638784382722683
 20
-6.897360724732
 30
0.0
 10
6.638784382722683
 20
-6.897360724732
 30
0.0
 10
6.439947314376872
 20
-6.965779439467243
 30
0.0
 10
6.439947314376872
 20
-6.965779439467243
 30
0.0
 10
6.439947314376872
 20
-6.965779439467243
 30
0.0
 10
5.951527251781928
 20
-7.133841437622625
 30
0.0
 10
5.951527251781928
 20
-7.133841437622625
 30
0.0
 10
5.951527251781928
 20
-7.133841437622625
 30
0.0
 10
5.96043520568004
 20
-6.61739246301325
 30
0.0
 10
5.96043520568004
 20
-6.61739246301325
 30
0.0
 10
5.96043520568004
 20
-6.61739246301325
 30
0.0
 10
5.964061287358642
 20
-6.407142456231566
 30
0.0
 10
5.964061287358642
 20
-6.407142456231566
 30
0.0
 10
5.964061287358642
 20
-6.407142456231566
 30
0.0
 10
5.837545369050809
 20
-6.23917709707358
 30
0.0
 10
5.837545369050809
 20
-6.23917709707358
 30
0.0
 10
5.837545369050809
 20
-6.23917709707358
 30
0.0
 10
5.526779784740912
 20
-5.826601481296671
 30
0.0
 10
5.526779784740912
 20
-5.826601481296671
 30
0.0
 10
5.526779784740912
 20
-5.826601481296671
 30
0.0
 10
6.020703819707275
 20
-5.675481825263684
 30
0.0
 10
6.020703819707275
 20
-5.675481825263684
 30
0.0
 10
6.020703819707275
 20
-5.675481825263684
 30
0.0
 10
6.221783506190022
 20
-5.613960930895195
 30
0.0
 10
6.221783506190022
 20
-5.613960930895195
 30
0.0
 10
6.221783506190022
 20
-5.613960930895195
 30
0.0
 10
6.342431572392822
 20
-5.44173328332575
 30
0.0
 10
6.342431572392822
 20
-5.44173328332575
 30
0.0
 10
6.342431572392822
 20
-5.44173328332575
 30
0.0
 10
6.638784382722683
 20
-5.018684204278441
 30
0.0
 10
6.638784382722683
 20
-5.018684204278441
 30
0.0
  0
LWPOLYLINE
  5
A5
330
70
100
AcDbEntity
  8
Layer 1
 62
    18
420
        0
370
    18
100
AcDbPolyline
 90
        4
 70
     1
 43
0.0
 10
6.825741782666934
 20
-6.225445595000867
 10
6.451828360307975
 20
-6.225445595000867
 10
6.451828360307975
 20
-6.100445595000867
 10
6.825741782666934
 20
-6.100445595000867
  0
SPLINE
  5
A6
330
70
100
AcDbEntity
  8
Layer 1
 62
    18
420
    65793
370
    18
100
AcDbSpline
210
0.0
220
0.0
230
1.0
 70
    11
 71
     3
 72
    65
 73
    61
 74
     0
 42
0.0000000001
 43
0.0000000001
 40
0.0
 40
0.0
 40
0.0
 40
0.0
 40
1.0
 40
1.0
 40
1.0
 40
2.0
 40
2.0
 40
2.0
 40
3.0
 40
3.0
 40
3.0
 40
4.0
 40
4.0
 40
4.0
 40
5.0
 40
5.0
 40
5.0
 40
6.0
 40
6.0
 40
6.0
 40
7.0
 40
7.0
 40
7.0
 40
8.0
 40
8.0
 40
8.0
 40
9.0
 40
9.0
 40
9.0
 40
10.0
 40
10.0
 40
10.0
 40
11.0
 40
11.0
 40
11.0
 40
12.0
 40
12.0
 40
12.0
 40
13.0
 40
13.0
 40
13.0
 40
14.0
 40
14.0
 40
14.0
 40
15.0
 40
15.0
 40
15.0
 40
16.0
 40
16.0
 40
16.0
 40
17.0
 40
17.0
 40
17.0
 40
18.0
 40
18.0
 40
18.0
 40
19.0
 40
19.0
 40
19.0
 40
20.0
 40
20.0
 40
20.0
 40
20.0
 10
6.54669472970747
 20
-9.081282812550448
 30
0.0
 10
6.54669472970747
 20
-9.081282812550448
 30
0.0
 10
6.752044545923833
 20
-9.374422800072149
 30
0.0
 10
6.752044545923833
 20
-9.374422800072149
 30
0.0
 10
6.752044545923833
 20
-9.374422800072149
 30
0.0
 10
6.894627757186854
 20
-9.577964025929354
 30
0.0
 10
6.894627757186854
 20
-9.577964025929354
 30
0.0
 10
6.894627757186854
 20
-9.577964025929354
 30
0.0
 10
7.132267714190978
 20
-9.650672155812166
 30
0.0
 10
7.132267714190978
 20
-9.650672155812166
 30
0.0
 10
7.132267714190978
 20
-9.650672155812166
 30
0.0
 10
7.474519173948439
 20
-9.755386443464077
 30
0.0
 10
7.474519173948439
 20
-9.755386443464077
 30
0.0
 10
7.474519173948439
 20
-9.755386443464077
 30
0.0
 10
7.259183328001199
 20
-10.04126918136555
 30
0.0
 10
7.259183328001199
 20
-10.04126918136555
 30
0.0
 10
7.259183328001199
 20
-10.04126918136555
 30
0.0
 10
7.10966457325402
 20
-10.23977161599012
 30
0.0
 10
7.10966457325402
 20
-10.23977161599012
 30
0.0
 10
7.10966457325402
 20
-10.23977161599012
 30
0.0
 10
7.113950173704324
 20
-10.48824828021538
 30
0.0
 10
7.113950173704324
 20
-10.48824828021538
 30
0.0
 10
7.113950173704324
 20
-10.48824828021538
 30
0.0
 10
7.120122353880105
 20
-10.84610842154567
 30
0.0
 10
7.120122353880105
 20
-10.84610842154567
 30
0.0
 10
7.120122353880105
 20
-10.84610842154567
 30
0.0
 10
6.781683472111985
 20
-10.72965419113117
 30
0.0
 10
6.781683472111985
 20
-10.72965419113117
 30
0.0
 10
6.781683472111985
 20
-10.72965419113117
 30
0.0
 10
6.546694305852219
 20
-10.64879617246798
 30
0.0
 10
6.546694305852219
 20
-10.64879617246798
 30
0.0
 10
6.546694305852219
 20
-10.64879617246798
 30
0.0
 10
6.311705139592453
 20
-10.72965419113117
 30
0.0
 10
6.311705139592453
 20
-10.72965419113117
 30
0.0
 10
6.311705139592453
 20
-10.72965419113117
 30
0.0
 10
5.973267741317713
 20
-10.84610842154567
 30
0.0
 10
5.973267741317713
 20
-10.84610842154567
 30
0.0
 10
5.973267741317713
 20
-10.84610842154567
 30
0.0
 10
5.979440345348747
 20
-10.48824912792588
 30
0.0
 10
5.979440345348747
 20
-10.48824912792588
 30
0.0
 10
5.979440345348747
 20
-10.48824912792588
 30
0.0
 10
5.983726157726676
 20
-10.23977161599012
 30
0.0
 10
5.983726157726676
 20
-10.23977161599012
 30
0.0
 10
5.983726157726676
 20
-10.23977161599012
 30
0.0
 10
5.834206131413743
 20
-10.04126833365505
 30
0.0
 10
5.834206131413743
 20
-10.04126833365505
 30
0.0
 10
5.834206131413743
 20
-10.04126833365505
 30
0.0
 10
5.618870497394103
 20
-9.755386443464077
 30
0.0
 10
5.618870497394103
 20
-9.755386443464077
 30
0.0
 10
5.618870497394103
 20
-9.755386443464077
 30
0.0
 10
5.96112195715159
 20
-9.650672155812166
 30
0.0
 10
5.96112195715159
 20
-9.650672155812166
 30
0.0
 10
5.96112195715159
 20
-9.650672155812166
 30
0.0
 10
6.198761702228087
 20
-9.577964025929354
 30
0.0
 10
6.198761702228087
 20
-9.577964025929354
 30
0.0
 10
6.198761702228087
 20
-9.577964025929354
 30
0.0
 10
6.341345125418733
 20
-9.374422800072149
 30
0.0
 10
6.341345125418733
 20
-9.374422800072149
 30
0.0
 10
6.341345125418733
 20
-9.374422800072149
 30
0.0
 10
6.54669472970747
 20
-9.081282812550448
 30
0.0
 10
6.54669472970747
 20
-9.081282812550448
 30
0.0
  0
LWPOLYLINE
  5
A7
330
70
100
AcDbEntity
  8
Layer 1
 62
    18
420
        0
370
    18
100
AcDbPolyline
 90
        4
 70
     1
 43
0.0
 10
6.702529535534696
 20
-10.0943855864652
 10
6.39086013580782
 20
-10.0943855864652
 10
6.39086013580782
 20
-9.969385586465199
 10
6.702529535534696
 20
-9.969385586465199
  0
SPLINE
  5
A8
330
70
100
AcDbEntity
  8
Layer 1
 62
    18
420
    65793
370
    18
100
AcDbSpline
210
0.0
220
0.0
230
1.0
 70
    11
 71
     3
 72
    65
 73
    61
 74
     0
 42
0.0000000001
 43
0.0000000001
 40
0.0
 40
0.0
 40
0.0
 40
0.0
 40
1.0
 40
1.0
 40
1.0
 40
2.0
 40
2.0
 40
2.0
 40
3.0
 40
3.0
 40
3.0
 40
4.0
 40
4.0
 40
4.0
 40
5.0
 40
5.0
 40
5.0
 40
6.0
 40
6.0
 40
6.0
 40
7.0
 40
7.0
 40
7.0
 40
8.0
 40
8.0
 40
8.0
 40
9.0
 40
9.0
 40
9.0
 40
10.0
 40
10.0
 40
10.0
 40
11.0
 40
11.0
 40
11.0
 40
12.0
 40
12.0
 40
12.0
 40
13.0
 40
13.0
 40
13.0
 40
14.0
 40
14.0
 40
14.0
 40
15.0
 40
15.0
 40
15.0
 40
16.0
 40
16.0
 40
16.0
 40
17.0
 40
17.0
 40
17.0
 40
18.0
 40
18.0
 40
18.0
 40
19.0
 40
19.0
 40
19.0
 40
20.0
 40
20.0
 40
20.0
 40
20.0
 10
3.273150398368038
 20
-11.0405562338873
 30
0.0
 10
3.273150398368038
 20
-11.0405562338873
 30
0.0
 10
3.432998293672401
 20
-11.26874209950145
 30
0.0
 10
3.432998293672401
 20
-11.26874209950145
 30
0.0
 10
3.432998293672401
 20
-11.26874209950145
 30
0.0
 10
3.586550666922726
 20
-11.48794053835778
 30
0.0
 10
3.586550666922726
 20
-11.48794053835778
 30
0.0
 10
3.586550666922726
 20
-11.48794053835778
 30
0.0
 10
3.842469381657969
 20
-11.566241014432
 30
0.0
 10
3.842469381657969
 20
-11.566241014432
 30
0.0
 10
3.842469381657969
 20
-11.566241014432
 30
0.0
 10
4.108884023991953
 20
-11.64775177018287
 30
0.0
 10
4.108884023991953
 20
-11.64775177018287
 30
0.0
 10
4.108884023991953
 20
-11.64775177018287
 30
0.0
 10
3.941263259153629
 20
-11.87028764529138
 30
0.0
 10
3.941263259153629
 20
-11.87028764529138
 30
0.0
 10
3.941263259153629
 20
-11.87028764529138
 30
0.0
 10
3.780242980222977
 20
-12.08405988921499
 30
0.0
 10
3.780242980222977
 20
-12.08405988921499
 30
0.0
 10
3.780242980222977
 20
-12.08405988921499
 30
0.0
 10
3.784858340059119
 20
-12.35165072987254
 30
0.0
 10
3.784858340059119
 20
-12.35165072987254
 30
0.0
 10
3.784858340059119
 20
-12.35165072987254
 30
0.0
 10
3.789662951265174
 20
-12.63021518299754
 30
0.0
 10
3.789662951265174
 20
-12.63021518299754
 30
0.0
 10
3.789662951265174
 20
-12.63021518299754
 30
0.0
 10
3.526216143403846
 20
-12.53956441259824
 30
0.0
 10
3.526216143403846
 20
-12.53956441259824
 30
0.0
 10
3.526216143403846
 20
-12.53956441259824
 30
0.0
 10
3.273149974512786
 20
-12.45248674197106
 30
0.0
 10
3.273149974512786
 20
-12.45248674197106
 30
0.0
 10
3.273149974512786
 20
-12.45248674197106
 30
0.0
 10
3.020083805621728
 20
-12.53956441259824
 30
0.0
 10
3.020083805621728
 20
-12.53956441259824
 30
0.0
 10
3.020083805621728
 20
-12.53956441259824
 30
0.0
 10
2.756637845470903
 20
-12.63021433528703
 30
0.0
 10
2.756637845470903
 20
-12.63021433528703
 30
0.0
 10
2.756637845470903
 20
-12.63021433528703
 30
0.0
 10
2.761442668604584
 20
-12.35165072987254
 30
0.0
 10
2.761442668604584
 20
-12.35165072987254
 30
0.0
 10
2.761442668604584
 20
-12.35165072987254
 30
0.0
 10
2.766058028440738
 20
-12.08405988921499
 30
0.0
 10
2.766058028440738
 20
-12.08405988921499
 30
0.0
 10
2.766058028440738
 20
-12.08405988921499
 30
0.0
 10
2.605037749510074
 20
-11.87028679758087
 30
0.0
 10
2.605037749510074
 20
-11.87028679758087
 30
0.0
 10
2.605037749510074
 20
-11.87028679758087
 30
0.0
 10
2.437417196599375
 20
-11.64775177018287
 30
0.0
 10
2.437417196599375
 20
-11.64775177018287
 30
0.0
 10
2.437417196599375
 20
-11.64775177018287
 30
0.0
 10
2.703830567367604
 20
-11.566241014432
 30
0.0
 10
2.703830567367604
 20
-11.566241014432
 30
0.0
 10
2.703830567367604
 20
-11.566241014432
 30
0.0
 10
2.959751401379106
 20
-11.48794053835778
 30
0.0
 10
2.959751401379106
 20
-11.48794053835778
 30
0.0
 10
2.959751401379106
 20
-11.48794053835778
 30
0.0
 10
3.113302714991302
 20
-11.26874209950145
 30
0.0
 10
3.113302714991302
 20
-11.26874209950145
 30
0.0
 10
3.113302714991302
 20
-11.26874209950145
 30
0.0
 10
3.273150398368038
 20
-11.0405562338873
 30
0.0
 10
3.273150398368038
 20
-11.0405562338873
 30
0.0
  0
LWPOLYLINE
  5
A9
330
70
100
AcDbEntity
  8
Layer 1
 62
    18
420
        0
370
    18
100
AcDbPolyline
 90
        4
 70
     1
 43
0.0
 10
3.398150610295588
 20
-11.96826491782735
 10
3.148150610295588
 20
-11.96826491782735
 10
3.148150610295588
 20
-11.84326491782735
 10
3.398150610295588
 20
-11.84326491782735
  0
ENDSEC
  0
SECTION
  2
OBJECTS
  0
DICTIONARY
  5
C
330
0
100
AcDbDictionary
281
     1
  3
ACAD_COLOR
350
63
  3
ACAD_DETAILVIEWSTYLE
350
6A
  3
ACAD_GROUP
350
D
  3
ACAD_LAYOUT
350
62
  3
ACAD_MATERIAL
350
10
  3
ACAD_MLEADERSTYLE
350
66
  3
ACAD_MLINESTYLE
350
5F
  3
ACAD_PLOTSETTINGS
350
61
  3
ACAD_PLOTSTYLENAME
350
E
  3
ACAD_SCALELIST
350
42
  3
ACAD_SECTIONVIEWSTYLE
350
68
  3
ACAD_TABLESTYLE
350
64
  3
ACAD_VISUALSTYLE
350
29
  3
ACDB_RECOMPOSE_DATA
350
B2
  3
AcDbVariableDictionary
350
AA
  0
DICTIONARY
  5
63
102
{ACAD_REACTORS
330
C
102
}
330
C
100
AcDbDictionary
281
     1
  0
DICTIONARY
  5
6A
102
{ACAD_REACTORS
330
C
102
}
330
C
100
AcDbDictionary
281
     1
  3
Imperial24
350
6B
  0
DICTIONARY
  5
D
102
{ACAD_REACTORS
330
C
102
}
330
C
100
AcDbDictionary
281
     1
  0
DICTIONARY
  5
62
102
{ACAD_REACTORS
330
C
102
}
330
C
100
AcDbDictionary
281
     1
  3
Layout1
350
6F
  3
Layout2
350
77
  3
Model
350
73
  0
DICTIONARY
  5
10
102
{ACAD_REACTORS
330
C
102
}
330
C
100
AcDbDictionary
281
     1
  3
ByBlock
350
19
  3
ByLayer
350
11
  3
Global
350
21
  0
DICTIONARY
  5
66
102
{ACAD_REACTORS
330
C
102
}
330
C
100
AcDbDictionary
281
     1
  3
Standard
350
67
  0
DICTIONARY
  5
5F
102
{ACAD_REACTORS
330
C
102
}
330
C
100
AcDbDictionary
281
     1
  3
Standard
350
60
  0
DICTIONARY
  5
61
102
{ACAD_REACTORS
330
C
102
}
330
C
100
AcDbDictionary
281
     1
  0
ACDBDICTIONARYWDFLT
  5
E
102
{ACAD_REACTORS
330
C
102
}
330
C
100
AcDbDictionary
281
     1
  3
Normal
350
F
100
AcDbDictionaryWithDefault
340
F
  0
DICTIONARY
  5
42
102
{ACAD_REACTORS
330
C
102
}
330
C
100
AcDbDictionary
281
     1
  3
A0
350
43
  3
A1
350
44
  3
A2
350
45
  3
A3
350
46
  3
A4
350
47
  3
A5
350
48
  3
A6
350
49
  3
A7
350
4A
  3
A8
350
4B
  3
A9
350
4C
  3
B0
350
4D
  3
B1
350
4E
  3
B2
350
4F
  3
B3
350
50
  3
B4
350
51
  3
B5
350
52
  3
B6
350
53
  0
DICTIONARY
  5
68
102
{ACAD_REACTORS
330
C
102
}
330
C
100
AcDbDictionary
281
     1
  3
Imperial24
350
69
  0
DICTIONARY
  5
64
102
{ACAD_REACTORS
330
C
102
}
330
C
100
AcDbDictionary
281
     1
  3
Standard
350
65
  0
DICTIONARY
  5
29
102
{ACAD_REACTORS
330
C
102
}
330
C
100
AcDbDictionary
281
     1
  3
2dWireframe
350
2F
  3
Basic
350
2E
  3
Brighten
350
35
  3
ColorChange
350
39
  3
Conceptual
350
32
  3
Dim
350
34
  3
EdgeColorOff
350
41
  3
Facepattern
350
38
  3
Flat
350
2A
  3
FlatWithEdges
350
2B
  3
Gouraud
350
2C
  3
GouraudWithEdges
350
2D
  3
Hidden
350
31
  3
JitterOff
350
3F
  3
Linepattern
350
37
  3
OverhangOff
350
40
  3
Realistic
350
33
  3
Shaded
350
3E
  3
Shaded with edges
350
3D
  3
Shades of Gray
350
3A
  3
Sketchy
350
3B
  3
Thicken
350
36
  3
Wireframe
350
30
  3
X-Ray
350
3C
  0
XRECORD
  5
B2
102
{ACAD_REACTORS
330
C
102
}
330
C
100
AcDbXrecord
280
     1
 90
        1
330
65
  0
DICTIONARY
  5
AA
102
{ACAD_REACTORS
330
C
102
}
330
C
100
AcDbDictionary
281
     1
  3
CANNOSCALE
350
AF
  3
CMLEADERSTYLE
350
AC
  3
CTABLESTYLE
350
AB
  3
CVIEWDETAILSTYLE
350
AD
  3
CVIEWSECTIONSTYLE
350
AE
  0
ACDBDETAILVIEWSTYLE
  5
6B
102
{ACAD_REACTORS
330
6A
102
}
330
6A
100
AcDbModelDocViewStyle
 70
     0
  3
Imperial24
290
     1
300
Imperial24
 90
        0
100
AcDbDetailViewStyle
 70
     0
 71
     0
 90
        3
 71
     1
340
55
 62
   256
 40
0.24
340
0
 62
   256
 40
0.24
300

 40
0.36
280
     3
 71
     2
340
5D
 90
       25
 62
   256
 71
     3
340
55
 62
   256
 40
0.24
 90
        1
 40
0.75
 90
        1
300
%<\AcVar ViewType \f "%tc1">% %<\AcVar ViewDetailId>%\PSCALE %<\AcVar ViewScale \f "%sn">%
 71
     4
340
5D
 90
       25
 62
   256
340
5D
 90
       25
 62
   256
280
     0
  0
LAYOUT
  5
6F
102
{ACAD_REACTORS
330
62
102
}
330
62
100
AcDbPlotSettings
  1

  2

  4

  6

 40
0.0
 41
0.0
 42
0.0
 43
0.0
 44
0.0
 45
0.0
 46
0.0
 47
0.0
 48
0.0
 49
0.0
140
0.0
141
0.0
142
1.0
143
1.0
 70
   688
 72
     0
 73
     0
 74
     5
  7

 75
    16
147
1.0
 76
     0
 77
     2
 78
   300
148
0.0
149
0.0
100
AcDbLayout
  1
Layout1
 70
     1
 71
     1
 10
0.0
 20
0.0
 11
12.0
 21
9.0
 12
0.0
 22
0.0
 32
0.0
 14
0.0
 24
0.0
 34
0.0
 15
0.0
 25
0.0
 35
0.0
146
0.0
 13
0.0
 23
0.0
 33
0.0
 16
1.0
 26
0.0
 36
0.0
 17
0.0
 27
1.0
 37
0.0
 76
     0
330
6C
  0
LAYOUT
  5
77
102
{ACAD_REACTORS
330
62
102
}
330
62
100
AcDbPlotSettings
  1

  2

  4

  6

 40
0.0
 41
0.0
 42
0.0
 43
0.0
 44
0.0
 45
0.0
 46
0.0
 47
0.0
 48
0.0
 49
0.0
140
0.0
141
0.0
142
1.0
143
1.0
 70
   688
 72
     0
 73
     0
 74
     5
  7

 75
    16
147
1.0
 76
     0
 77
     2
 78
   300
148
0.0
149
0.0
100
AcDbLayout
  1
Layout2
 70
     1
 71
     2
 10
0.0
 20
0.0
 11
12.0
 21
9.0
 12
0.0
 22
0.0
 32
0.0
 14
0.0
 24
0.0
 34
0.0
 15
0.0
 25
0.0
 35
0.0
146
0.0
 13
0.0
 23
0.0
 33
0.0
 16
1.0
 26
0.0
 36
0.0
 17
0.0
 27
1.0
 37
0.0
 76
     0
330
74
  0
LAYOUT
  5
73
102
{ACAD_REACTORS
330
62
102
}
330
62
100
AcDbPlotSettings
  1

  2

  4

  6

 40
0.0
 41
0.0
 42
0.0
 43
0.0
 44
0.0
 45
0.0
 46
0.0
 47
0.0
 48
0.0
 49
0.0
140
0.0
141
0.0
142
1.0
143
1.0
 70
  1712
 72
     0
 73
     0
 74
     0
  7

 75
     0
147
1.0
 76
     0
 77
     2
 78
   300
148
0.0
149
0.0
100
AcDbLayout
  1
Model
 70
     1
 71
     0
 10
0.0
 20
0.0
 11
12.0
 21
9.0
 12
0.0
 22
0.0
 32
0.0
 14
0.0
 24
0.0
 34
0.0
 15
0.0
 25
0.0
 35
0.0
146
0.0
 13
0.0
 23
0.0
 33
0.0
 16
1.0
 26
0.0
 36
0.0
 17
0.0
 27
1.0
 37
0.0
 76
     0
330
70
  0
MATERIAL
  5
19
102
{ACAD_XDICTIONARY
360
1A
102
}
102
{ACAD_REACTORS
330
10
102
}
330
10
100
AcDbMaterial
  1
ByBlock
 72
     0
 43
0.0208333333333333
 43
0.0
 43
0.0
 43
0.0
 43
0.0
 43
0.0208333333333333
 43
0.0
 43
0.0
 43
0.0
 43
0.0
 43
1.0
 43
0.0
 43
0.0
 43
0.0
 43
0.0
 43
1.0
 77
     0
 47
0.0208333333333333
 47
0.0
 47
0.0
 47
0.0
 47
0.0
 47
0.0208333333333333
 47
0.0
 47
0.0
 47
0.0
 47
0.0
 47
1.0
 47
0.0
 47
0.0
 47
0.0
 47
0.0
 47
1.0
171
     0
 49
0.0208333333333333
 49
0.0
 49
0.0
 49
0.0
 49
0.0
 49
0.0208333333333333
 49
0.0
 49
0.0
 49
0.0
 49
0.0
 49
1.0
 49
0.0
 49
0.0
 49
0.0
 49
0.0
 49
1.0
175
     0
142
0.0208333333333333
142
0.0
142
0.0
142
0.0
142
0.0
142
0.0208333333333333
142
0.0
142
0.0
142
0.0
142
0.0
142
1.0
142
0.0
142
0.0
142
0.0
142
0.0
142
1.0
179
     0
144
0.0208333333333333
144
0.0
144
0.0
144
0.0
144
0.0
144
0.0208333333333333
144
0.0
144
0.0
144
0.0
144
0.0
144
1.0
144
0.0
144
0.0
144
0.0
144
0.0
144
1.0
147
0.0208333333333333
147
0.0
147
0.0
147
0.0
147
0.0
147
0.0208333333333333
147
0.0
147
0.0
147
0.0
147
0.0
147
1.0
147
0.0
147
0.0
147
0.0
147
0.0
147
1.0
  0
MATERIAL
  5
11
102
{ACAD_XDICTIONARY
360
12
102
}
102
{ACAD_REACTORS
330
10
102
}
330
10
100
AcDbMaterial
  1
ByLayer
 72
     0
 43
0.0208333333333333
 43
0.0
 43
0.0
 43
0.0
 43
0.0
 43
0.0208333333333333
 43
0.0
 43
0.0
 43
0.0
 43
0.0
 43
1.0
 43
0.0
 43
0.0
 43
0.0
 43
0.0
 43
1.0
 77
     0
 47
0.0208333333333333
 47
0.0
 47
0.0
 47
0.0
 47
0.0
 47
0.0208333333333333
 47
0.0
 47
0.0
 47
0.0
 47
0.0
 47
1.0
 47
0.0
 47
0.0
 47
0.0
 47
0.0
 47
1.0
171
     0
 49
0.0208333333333333
 49
0.0
 49
0.0
 49
0.0
 49
0.0
 49
0.0208333333333333
 49
0.0
 49
0.0
 49
0.0
 49
0.0
 49
1.0
 49
0.0
 49
0.0
 49
0.0
 49
0.0
 49
1.0
175
     0
142
0.0208333333333333
142
0.0
142
0.0
142
0.0
142
0.0
142
0.0208333333333333
142
0.0
142
0.0
142
0.0
142
0.0
142
1.0
142
0.0
142
0.0
142
0.0
142
0.0
142
1.0
179
     0
144
0.0208333333333333
144
0.0
144
0.0
144
0.0
144
0.0
144
0.0208333333333333
144
0.0
144
0.0
144
0.0
144
0.0
144
1.0
144
0.0
144
0.0
144
0.0
144
0.0
144
1.0
147
0.0208333333333333
147
0.0
147
0.0
147
0.0
147
0.0
147
0.0208333333333333
147
0.0
147
0.0
147
0.0
147
0.0
147
1.0
147
0.0
147
0.0
147
0.0
147
0.0
147
1.0
  0
MATERIAL
  5
21
102
{ACAD_XDICTIONARY
360
22
102
}
102
{ACAD_REACTORS
330
10
102
}
330
10
100
AcDbMaterial
  1
Global
 72
     0
 43
0.0208333333333333
 43
0.0
 43
0.0
 43
0.0
 43
0.0
 43
0.0208333333333333
 43
0.0
 43
0.0
 43
0.0
 43
0.0
 43
1.0
 43
0.0
 43
0.0
 43
0.0
 43
0.0
 43
1.0
 77
     0
 47
0.0208333333333333
 47
0.0
 47
0.0
 47
0.0
 47
0.0
 47
0.0208333333333333
 47
0.0
 47
0.0
 47
0.0
 47
0.0
 47
1.0
 47
0.0
 47
0.0
 47
0.0
 47
0.0
 47
1.0
171
     0
 49
0.0208333333333333
 49
0.0
 49
0.0
 49
0.0
 49
0.0
 49
0.0208333333333333
 49
0.0
 49
0.0
 49
0.0
 49
0.0
 49
1.0
 49
0.0
 49
0.0
 49
0.0
 49
0.0
 49
1.0
175
     0
142
0.0208333333333333
142
0.0
142
0.0
142
0.0
142
0.0
142
0.0208333333333333
142
0.0
142
0.0
142
0.0
142
0.0
142
1.0
142
0.0
142
0.0
142
0.0
142
0.0
142
1.0
179
     0
144
0.0208333333333333
144
0.0
144
0.0
144
0.0
144
0.0
144
0.0208333333333333
144
0.0
144
0.0
144
0.0
144
0.0
144
1.0
144
0.0
144
0.0
144
0.0
144
0.0
144
1.0
147
0.0208333333333333
147
0.0
147
0.0
147
0.0
147
0.0
147
0.0208333333333333
147
0.0
147
0.0
147
0.0
147
0.0
147
1.0
147
0.0
147
0.0
147
0.0
147
0.0
147
1.0
  0
MLEADERSTYLE
  5
67
102
{ACAD_REACTORS
330
66
102
}
330
66
100
AcDbMLeaderStyle
179
     2
170
     2
171
     1
172
     0
 90
        2
 40
0.0
 41
0.0
173
     1
 91
-1056964608
340
5B
 92
       -2
290
     1
 42
0.09
291
     1
 43
0.36
  3
Standard
 44
0.18
300

342
55
174
     1
178
     6
175
     1
176
     0
 93
-1056964608
 45
0.18
292
     0
297
     0
 46
0.18
 94
-1056964608
 47
1.0
 49
1.0
140
1.0
293
     1
141
0.0
294
     1
177
     0
142
1.0
295
     1
296
     0
143
0.125
271
     0
272
     9
273
     9
298
     1
  0
MLINESTYLE
  5
60
102
{ACAD_REACTORS
330
5F
102
}
330
5F
100
AcDbMlineStyle
  2
STANDARD
 70
     0
  3

 62
   256
 51
90.0
 52
90.0
 71
     2
 49
0.5
 62
   256
  6
BYLAYER
 49
-0.5
 62
   256
  6
BYLAYER
  0
ACDBPLACEHOLDER
  5
F
102
{ACAD_REACTORS
330
E
102
}
330
E
  0
SCALE
  5
43
102
{ACAD_REACTORS
330
42
102
}
330
42
100
AcDbScale
 70
     0
300
1:1
140
1.0
141
1.0
290
     1
  0
SCALE
  5
44
102
{ACAD_REACTORS
330
42
102
}
330
42
100
AcDbScale
 70
     0
300
1/128" = 1'-0"
140
0.0078125
141
12.0
290
     0
  0
SCALE
  5
45
102
{ACAD_REACTORS
330
42
102
}
330
42
100
AcDbScale
 70
     0
300
1/64" = 1'-0"
140
0.015625
141
12.0
290
     0
  0
SCALE
  5
46
102
{ACAD_REACTORS
330
42
102
}
330
42
100
AcDbScale
 70
     0
300
1/32" = 1'-0"
140
0.03125
141
12.0
290
     0
  0
SCALE
  5
47
102
{ACAD_REACTORS
330
42
102
}
330
42
100
AcDbScale
 70
     0
300
1/16" = 1'-0"
140
0.0625
141
12.0
290
     0
  0
SCALE
  5
48
102
{ACAD_REACTORS
330
42
102
}
330
42
100
AcDbScale
 70
     0
300
3/32" = 1'-0"
140
0.09375
141
12.0
290
     0
  0
SCALE
  5
49
102
{ACAD_REACTORS
330
42
102
}
330
42
100
AcDbScale
 70
     0
300
1/8" = 1'-0"
140
0.125
141
12.0
290
     0
  0
SCALE
  5
4A
102
{ACAD_REACTORS
330
42
102
}
330
42
100
AcDbScale
 70
     0
300
3/16" = 1'-0"
140
0.1875
141
12.0
290
     0
  0
SCALE
  5
4B
102
{ACAD_REACTORS
330
42
102
}
330
42
100
AcDbScale
 70
     0
300
1/4" = 1'-0"
140
0.25
141
12.0
290
     0
  0
SCALE
  5
4C
102
{ACAD_REACTORS
330
42
102
}
330
42
100
AcDbScale
 70
     0
300
3/8" = 1'-0"
140
0.375
141
12.0
290
     0
  0
SCALE
  5
4D
102
{ACAD_REACTORS
330
42
102
}
330
42
100
AcDbScale
 70
     0
300
1/2" = 1'-0"
140
0.5
141
12.0
290
     0
  0
SCALE
  5
4E
102
{ACAD_REACTORS
330
42
102
}
330
42
100
AcDbScale
 70
     0
300
3/4" = 1'-0"
140
0.75
141
12.0
290
     0
  0
SCALE
  5
4F
102
{ACAD_REACTORS
330
42
102
}
330
42
100
AcDbScale
 70
     0
300
1" = 1'-0"
140
1.0
141
12.0
290
     0
  0
SCALE
  5
50
102
{ACAD_REACTORS
330
42
102
}
330
42
100
AcDbScale
 70
     0
300
1-1/2" = 1'-0"
140
1.5
141
12.0
290
     0
  0
SCALE
  5
51
102
{ACAD_REACTORS
330
42
102
}
330
42
100
AcDbScale
 70
     0
300
3" = 1'-0"
140
3.0
141
12.0
290
     0
  0
SCALE
  5
52
102
{ACAD_REACTORS
330
42
102
}
330
42
100
AcDbScale
 70
     0
300
6" = 1'-0"
140
6.0
141
12.0
290
     0
  0
SCALE
  5
53
102
{ACAD_REACTORS
330
42
102
}
330
42
100
AcDbScale
 70
     0
300
1'-0" = 1'-0"
140
12.0
141
12.0
290
     0
  0
ACDBSECTIONVIEWSTYLE
  5
69
102
{ACAD_REACTORS
330
68
102
}
330
68
100
AcDbModelDocViewStyle
 70
     0
  3
Imperial24
290
     1
300
Imperial24
 90
        0
100
AcDbSectionViewStyle
 70
     0
 71
     0
 90
       78
 71
     1
340
55
 62
   256
 40
0.24
340
0
340
0
 62
   256
 40
0.24
300
I, O, Q, S, X, Z
 40
0.48
 90
        3
 40
0.18
 90
        1
 71
     2
340
5D
 90
       25
 62
   256
340
5D
 90
       50
 62
   256
 40
0.24
 40
0.0
 40
0.24
 71
     3
340
55
 62
   256
 40
0.24
 90
        1
 40
0.75
 90
        1
300
%<\AcVar ViewType \f "%tc1">% %<\AcVar ViewSectionStartId>%-%<\AcVar ViewSectionEndId>%\PSCALE %<\AcVar ViewScale \f "%sn">%
 71
     4
 62
   256
 62
   257
300
ANSI31
 40
1.0
 90
        0
290
     0
290
     0
 90
        6
 40
0.0
 40
1.570796326794896
 40
0.2617993877991494
 40
1.308996938995747
 40
-0.2617993877991494
 40
1.832595714594046
  0
TABLESTYLE
  5
65
102
{ACAD_XDICTIONARY
360
B0
102
}
102
{ACAD_REACTORS
330
64
102
}
330
64
100
AcDbTableStyle
280
     0
  3
Standard
 70
     0
 71
     0
 40
0.06
 41
0.06
280
     0
281
     0
  7
Standard
140
0.18
170
     2
 62
     0
 63
     7
283
     0
 90
      512
 91
        0
  1

274
    -2
284
     1
 64
     0
275
    -2
285
     1
 65
     0
276
    -2
286
     1
 66
     0
277
    -2
287
     1
 67
     0
278
    -2
288
     1
 68
     0
279
    -2
289
     1
 69
     0
  7
Standard
140
0.25
170
     5
 62
     0
 63
     7
283
     0
 90
      512
 91
        0
  1

274
    -2
284
     1
 64
     0
275
    -2
285
     1
 65
     0
276
    -2
286
     1
 66
     0
277
    -2
287
     1
 67
     0
278
    -2
288
     1
 68
     0
279
    -2
289
     1
 69
     0
  7
Standard
140
0.18
170
     5
 62
     0
 63
     7
283
     0
 90
      512
 91
        0
  1

274
    -2
284
     1
 64
     0
275
    -2
285
     1
 65
     0
276
    -2
286
     1
 66
     0
277
    -2
287
     1
 67
     0
278
    -2
288
     1
 68
     0
279
    -2
289
     1
 69
     0
  0
VISUALSTYLE
  5
2F
102
{ACAD_REACTORS
330
29
102
}
330
29
100
AcDbVisualStyle
  2
2dWireframe
 70
     4
177
     3
291
     0
 70
    58
 90
        0
176
     1
 90
        2
176
     1
 90
        0
176
     1
 90
        0
176
     1
 40
0.6
176
     1
 40
30.0
176
     1
 62
     7
420
 16777215
176
     1
 90
        1
176
     1
 90
        4
176
     1
 62
     7
176
     1
 62
   257
176
     1
 90
        1
176
     1
 90
        1
176
     1
 40
1.0
176
     1
 90
        0
176
     1
 62
   257
176
     1
 40
1.0
176
     1
 90
        1
176
     1
 90
        6
176
     1
 90
        2
176
     1
 62
     7
176
     1
 90
        5
176
     1
 90
        0
176
     1
 90
        0
176
     1
290
     0
176
     1
 90
        1
176
     1
 40
0.0
176
     1
 90
        0
176
     1
290
     1
176
     1
290
     1
176
     1
290
     0
176
     1
290
     0
176
     1
290
     0
176
     1
290
     0
176
     1
290
     0
176
     1
290
     0
176
     1
290
     0
176
     1
 90
       50
176
     1
 40
0.0
176
     1
 40
1.0
176
     1
 90
        0
176
     1
 62
    18
420
        0
176
     1
 90
       50
176
     1
 90
        3
176
     1
 62
     5
420
      255
176
     1
290
     0
176
     1
 90
       50
176
     1
 90
       50
176
     1
 90
       50
176
     1
290
     0
176
     1
 90
       50
176
     1
 62
   256
176
     0
 40
1.0
176
     0
 90
        2
176
     1
  1
strokes_ogs.tif
176
     1
290
     0
176
     1
 40
1.0
176
     1
 40
1.0
176
     1
  0
VISUALSTYLE
  5
2E
102
{ACAD_REACTORS
330
29
102
}
330
29
100
AcDbVisualStyle
  2
Basic
 70
     7
177
     3
291
     1
 70
    58
 90
        1
176
     1
 90
        0
176
     1
 90
        1
176
     1
 90
        0
176
     1
 40
0.6
176
     1
 40
30.0
176
     1
 62
     7
420
 16777215
176
     1
 90
        0
176
     1
 90
        4
176
     1
 62
     7
176
     1
 62
   257
176
     1
 90
        1
176
     1
 90
        1
176
     1
 40
1.0
176
     1
 90
        8
176
     1
 62
     7
176
     1
 40
1.0
176
     1
 90
        1
176
     1
 90
        6
176
     1
 90
        2
176
     1
 62
     7
176
     1
 90
        5
176
     1
 90
        0
176
     1
 90
        0
176
     1
290
     0
176
     1
 90
        1
176
     1
 40
0.0
176
     1
 90
        0
176
     1
290
     0
176
     1
290
     1
176
     1
290
     1
176
     1
290
     0
176
     1
290
     0
176
     1
290
     0
176
     1
290
     0
176
     1
290
     0
176
     1
290
     0
176
     1
 90
       50
176
     1
 40
0.0
176
     1
 40
1.0
176
     1
 90
        0
176
     1
 62
    18
420
        0
176
     1
 90
       50
176
     1
 90
        3
176
     1
 62
     5
420
      255
176
     1
290
     0
176
     1
 90
       50
176
     1
 90
       50
176
     1
 90
       50
176
     1
290
     0
176
     1
 90
       50
176
     1
 62
   256
176
     0
 40
1.0
176
     0
 90
        2
176
     1
  1
strokes_ogs.tif
176
     1
290
     0
176
     1
 40
1.0
176
     1
 40
1.0
176
     1
  0
VISUALSTYLE
  5
35
102
{ACAD_REACTORS
330
29
102
}
330
29
100
AcDbVisualStyle
  2
Brighten
 70
    12
177
     3
291
     1
 70
    58
 90
        2
176
     1
 90
        2
176
     1
 90
        0
176
     1
 90
        0
176
     1
 40
0.6
176
     1
 40
30.0
176
     1
 62
     7
420
 16777215
176
     1
 90
        1
176
     1
 90
        4
176
     1
 62
     7
176
     1
 62
   257
176
     1
 90
        1
176
     1
 90
        1
176
     1
 40
1.0
176
     1
 90
        8
176
     1
 62
     7
176
     1
 40
1.0
176
     1
 90
        1
176
     1
 90
        6
176
     1
 90
        2
176
     1
 62
     7
176
     1
 90
        5
176
     1
 90
        0
176
     1
 90
        0
176
     1
290
     0
176
     1
 90
        1
176
     1
 40
50.0
176
     1
 90
        0
176
     1
290
     0
176
     1
290
     1
176
     1
290
     1
176
     1
290
     0
176
     1
290
     0
176
     1
290
     0
176
     1
290
     0
176
     1
290
     0
176
     1
290
     0
176
     1
 90
       50
176
     1
 40
0.0
176
     1
 40
1.0
176
     1
 90
        0
176
     1
 62
    18
420
        0
176
     1
 90
       50
176
     1
 90
        3
176
     1
 62
     5
420
      255
176
     1
290
     0
176
     1
 90
       50
176
     1
 90
       50
176
     1
 90
       50
176
     1
290
     0
176
     1
 90
       50
176
     1
 62
   256
176
     0
 40
1.0
176
     0
 90
        2
176
     1
  1
strokes_ogs.tif
176
     1
290
     0
176
     1
 40
1.0
176
     1
 40
1.0
176
     1
  0
VISUALSTYLE
  5
39
102
{ACAD_REACTORS
330
29
102
}
330
29
100
AcDbVisualStyle
  2
ColorChange
 70
    16
177
     3
291
     1
 70
    58
 90
        2
176
     1
 90
        2
176
     1
 90
        3
176
     1
 90
        0
176
     1
 40
0.6
176
     1
 40
30.0
176
     1
 62
     8
420
  8421504
176
     1
 90
        1
176
     1
 90
        4
176
     1
 62
     7
176
     1
 62
   257
176
     1
 90
        1
176
     1
 90
        1
176
     1
 40
1.0
176
     1
 90
        8
176
     1
 62
     8
420
  8421504
176
     1
 40
1.0
176
     1
 90
        1
176
     1
 90
        6
176
     1
 90
        2
176
     1
 62
     7
176
     1
 90
        5
176
     1
 90
        0
176
     1
 90
        0
176
     1
290
     0
176
     1
 90
        1
176
     1
 40
0.0
176
     1
 90
        0
176
     1
290
     0
176
     1
290
     1
176
     1
290
     1
176
     1
290
     0
176
     1
290
     0
176
     1
290
     0
176
     1
290
     0
176
     1
290
     0
176
     1
290
     0
176
     1
 90
       50
176
     1
 40
0.0
176
     1
 40
1.0
176
     1
 90
        0
176
     1
 62
    18
420
        0
176
     1
 90
       50
176
     1
 90
        3
176
     1
 62
     5
420
      255
176
     1
290
     0
176
     1
 90
       50
176
     1
 90
       50
176
     1
 90
       50
176
     1
290
     0
176
     1
 90
       50
176
     1
 62
   256
176
     0
 40
1.0
176
     0
 90
        2
176
     1
  1
strokes_ogs.tif
176
     1
290
     0
176
     1
 40
1.0
176
     1
 40
1.0
176
     1
  0
VISUALSTYLE
  5
32
102
{ACAD_REACTORS
330
29
102
}
330
29
100
AcDbVisualStyle
  2
Conceptual
 70
     9
177
     3
291
     0
 70
    58
 90
        3
176
     1
 90
        2
176
     1
 90
        0
176
     1
 90
        0
176
     1
 40
0.6
176
     1
 40
30.0
176
     1
 62
     7
420
 16777215
176
     1
 90
        2
176
     1
 90
        2
176
     1
 62
     7
176
     1
 62
   257
176
     1
 90
        1
176
     1
 90
        1
176
     1
 40
179.0
176
     1
 90
        8
176
     1
 62
     7
176
     1
 40
1.0
176
     1
 90
        1
176
     1
 90
        6
176
     1
 90
        2
176
     1
 62
     7
176
     1
 90
        3
176
     1
 90
        0
176
     1
 90
        0
176
     1
290
     0
176
     1
 90
        1
176
     1
 40
0.0
176
     1
 90
        0
176
     1
290
     0
176
     1
290
     1
176
     1
290
     1
176
     1
290
     0
176
     1
290
     0
176
     1
290
     0
176
     1
290
     0
176
     1
290
     0
176
     1
290
     0
176
     1
 90
       50
176
     1
 40
0.0
176
     1
 40
1.0
176
     1
 90
        0
176
     1
 62
    18
420
        0
176
     1
 90
       50
176
     1
 90
        3
176
     1
 62
     5
420
      255
176
     1
290
     0
176
     1
 90
       50
176
     1
 90
       50
176
     1
 90
       50
176
     1
290
     0
176
     1
 90
       50
176
     1
 62
   256
176
     0
 40
1.0
176
     0
 90
        2
176
     1
  1
strokes_ogs.tif
176
     1
290
     0
176
     1
 40
1.0
176
     1
 40
1.0
176
     1
  0
VISUALSTYLE
  5
34
102
{ACAD_REACTORS
330
29
102
}
330
29
100
AcDbVisualStyle
  2
Dim
 70
    11
177
     3
291
     1
 70
    58
 90
        2
176
     1
 90
        2
176
     1
 90
        0
176
     1
 90
        0
176
     1
 40
0.6
176
     1
 40
30.0
176
     1
 62
     7
420
 16777215
176
     1
 90
        1
176
     1
 90
        4
176
     1
 62
     7
176
     1
 62
   257
176
     1
 90
        1
176
     1
 90
        1
176
     1
 40
1.0
176
     1
 90
        8
176
     1
 62
     7
176
     1
 40
1.0
176
     1
 90
        1
176
     1
 90
        6
176
     1
 90
        2
176
     1
 62
     7
176
     1
 90
        5
176
     1
 90
        0
176
     1
 90
        0
176
     1
290
     0
176
     1
 90
        1
176
     1
 40
-50.0
176
     1
 90
        0
176
     1
290
     0
176
     1
290
     1
176
     1
290
     1
176
     1
290
     0
176
     1
290
     0
176
     1
290
     0
176
     1
290
     0
176
     1
290
     0
176
     1
290
     0
176
     1
 90
       50
176
     1
 40
0.0
176
     1
 40
1.0
176
     1
 90
        0
176
     1
 62
    18
420
        0
176
     1
 90
       50
176
     1
 90
        3
176
     1
 62
     5
420
      255
176
     1
290
     0
176
     1
 90
       50
176
     1
 90
       50
176
     1
 90
       50
176
     1
290
     0
176
     1
 90
       50
176
     1
 62
   256
176
     0
 40
1.0
176
     0
 90
        2
176
     1
  1
strokes_ogs.tif
176
     1
290
     0
176
     1
 40
1.0
176
     1
 40
1.0
176
     1
  0
VISUALSTYLE
  5
41
102
{ACAD_REACTORS
330
29
102
}
330
29
100
AcDbVisualStyle
  2
EdgeColorOff
 70
    22
177
     3
291
     1
 70
    58
 90
        2
176
     0
 90
        2
176
     0
 90
        0
176
     0
 90
        0
176
     0
 40
0.6
176
     0
 40
30.0
176
     0
 62
     7
420
 16777215
176
     0
 90
        1
176
     0
 90
        4
176
     0
 62
     7
176
     0
 62
   257
176
     0
 90
        1
176
     0
 90
        1
176
     0
 40
1.0
176
     0
 90
        8
176
     2
 62
     7
176
     0
 40
1.0
176
     0
 90
        1
176
     0
 90
        6
176
     0
 90
        2
176
     0
 62
     7
176
     0
 90
        5
176
     0
 90
        0
176
     0
 90
        0
176
     0
290
     0
176
     0
 90
        1
176
     0
 40
0.0
176
     0
 90
        0
176
     0
290
     0
176
     0
290
     1
176
     0
290
     1
176
     0
290
     0
176
     0
290
     0
176
     0
290
     0
176
     0
290
     0
176
     0
290
     0
176
     0
290
     0
176
     0
 90
       50
176
     0
 40
0.0
176
     0
 40
1.0
176
     0
 90
        0
176
     0
 62
    18
420
        0
176
     0
 90
       50
176
     0
 90
        3
176
     0
 62
     5
420
      255
176
     0
290
     0
176
     0
 90
       50
176
     0
 90
       50
176
     0
 90
       50
176
     0
290
     0
176
     0
 90
       50
176
     0
 62
   256
176
     0
 40
1.0
176
     0
 90
        2
176
     0
  1
strokes_ogs.tif
176
     0
290
     0
176
     0
 40
1.0
176
     0
 40
1.0
176
     0
  0
VISUALSTYLE
  5
38
102
{ACAD_REACTORS
330
29
102
}
330
29
100
AcDbVisualStyle
  2
Facepattern
 70
    15
177
     3
291
     1
 70
    58
 90
        2
176
     1
 90
        2
176
     1
 90
        0
176
     1
 90
        0
176
     1
 40
0.6
176
     1
 40
30.0
176
     1
 62
     7
420
 16777215
176
     1
 90
        1
176
     1
 90
        4
176
     1
 62
     7
176
     1
 62
   257
176
     1
 90
        1
176
     1
 90
        1
176
     1
 40
1.0
176
     1
 90
        8
176
     1
 62
     7
176
     1
 40
1.0
176
     1
 90
        1
176
     1
 90
        6
176
     1
 90
        2
176
     1
 62
     7
176
     1
 90
        5
176
     1
 90
        0
176
     1
 90
        0
176
     1
290
     0
176
     1
 90
        1
176
     1
 40
0.0
176
     1
 90
        0
176
     1
290
     0
176
     1
290
     1
176
     1
290
     1
176
     1
290
     0
176
     1
290
     0
176
     1
290
     0
176
     1
290
     0
176
     1
290
     0
176
     1
290
     0
176
     1
 90
       50
176
     1
 40
0.0
176
     1
 40
1.0
176
     1
 90
        0
176
     1
 62
    18
420
        0
176
     1
 90
       50
176
     1
 90
        3
176
     1
 62
     5
420
      255
176
     1
290
     0
176
     1
 90
       50
176
     1
 90
       50
176
     1
 90
       50
176
     1
290
     0
176
     1
 90
       50
176
     1
 62
   256
176
     0
 40
1.0
176
     0
 90
        2
176
     1
  1
strokes_ogs.tif
176
     1
290
     0
176
     1
 40
1.0
176
     1
 40
1.0
176
     1
  0
VISUALSTYLE
  5
2A
102
{ACAD_REACTORS
330
29
102
}
330
29
100
AcDbVisualStyle
  2
Flat
 70
     0
177
     3
291
     1
 70
    58
 90
        2
176
     1
 90
        1
176
     1
 90
        1
176
     1
 90
        2
176
     1
 40
0.6
176
     1
 40
30.0
176
     1
 62
     7
420
 16777215
176
     1
 90
        0
176
     1
 90
        0
176
     1
 62
     7
176
     1
 62
   257
176
     1
 90
        1
176
     1
 90
        1
176
     1
 40
1.0
176
     1
 90
        8
176
     1
 62
     7
176
     1
 40
1.0
176
     1
 90
        1
176
     1
 90
        6
176
     1
 90
        2
176
     1
 62
     7
176
     1
 90
        5
176
     1
 90
        0
176
     1
 90
        0
176
     1
290
     0
176
     1
 90
       13
176
     1
 40
0.0
176
     1
 90
        0
176
     1
290
     0
176
     1
290
     1
176
     1
290
     1
176
     1
290
     0
176
     1
290
     0
176
     1
290
     0
176
     1
290
     0
176
     1
290
     0
176
     1
290
     0
176
     1
 90
       50
176
     1
 40
0.0
176
     1
 40
1.0
176
     1
 90
        0
176
     1
 62
    18
420
        0
176
     1
 90
       50
176
     1
 90
        3
176
     1
 62
     5
420
      255
176
     1
290
     0
176
     1
 90
       50
176
     1
 90
       50
176
     1
 90
       50
176
     1
290
     0
176
     1
 90
       50
176
     1
 62
   256
176
     0
 40
1.0
176
     0
 90
        2
176
     1
  1
strokes_ogs.tif
176
     1
290
     0
176
     1
 40
1.0
176
     1
 40
1.0
176
     1
  0
VISUALSTYLE
  5
2B
102
{ACAD_REACTORS
330
29
102
}
330
29
100
AcDbVisualStyle
  2
FlatWithEdges
 70
     1
177
     3
291
     1
 70
    58
 90
        2
176
     1
 90
        1
176
     1
 90
        1
176
     1
 90
        2
176
     1
 40
0.6
176
     1
 40
30.0
176
     1
 62
     7
420
 16777215
176
     1
 90
        1
176
     1
 90
        0
176
     1
 62
     7
176
     1
 62
   257
176
     1
 90
        1
176
     1
 90
        1
176
     1
 40
1.0
176
     1
 90
        0
176
     1
 62
   257
176
     1
 40
1.0
176
     1
 90
        1
176
     1
 90
        6
176
     1
 90
        2
176
     1
 62
     7
176
     1
 90
        5
176
     1
 90
        0
176
     1
 90
        0
176
     1
290
     0
176
     1
 90
       13
176
     1
 40
0.0
176
     1
 90
        0
176
     1
290
     0
176
     1
290
     1
176
     1
290
     1
176
     1
290
     0
176
     1
290
     0
176
     1
290
     0
176
     1
290
     0
176
     1
290
     0
176
     1
290
     0
176
     1
 90
       50
176
     1
 40
0.0
176
     1
 40
1.0
176
     1
 90
        0
176
     1
 62
    18
420
        0
176
     1
 90
       50
176
     1
 90
        3
176
     1
 62
     5
420
      255
176
     1
290
     0
176
     1
 90
       50
176
     1
 90
       50
176
     1
 90
       50
176
     1
290
     0
176
     1
 90
       50
176
     1
 62
   256
176
     0
 40
1.0
176
     0
 90
        2
176
     1
  1
strokes_ogs.tif
176
     1
290
     0
176
     1
 40
1.0
176
     1
 40
1.0
176
     1
  0
VISUALSTYLE
  5
2C
102
{ACAD_REACTORS
330
29
102
}
330
29
100
AcDbVisualStyle
  2
Gouraud
 70
     2
177
     3
291
     1
 70
    58
 90
        2
176
     1
 90
        2
176
     1
 90
        1
176
     1
 90
        2
176
     1
 40
0.6
176
     1
 40
30.0
176
     1
 62
     7
420
 16777215
176
     1
 90
        0
176
     1
 90
        0
176
     1
 62
     7
176
     1
 62
   257
176
     1
 90
        1
176
     1
 90
        1
176
     1
 40
1.0
176
     1
 90
        0
176
     1
 62
     7
176
     1
 40
1.0
176
     1
 90
        1
176
     1
 90
        6
176
     1
 90
        2
176
     1
 62
     7
176
     1
 90
        5
176
     1
 90
        0
176
     1
 90
        0
176
     1
290
     0
176
     1
 90
       13
176
     1
 40
0.0
176
     1
 90
        0
176
     1
290
     0
176
     1
290
     1
176
     1
290
     1
176
     1
290
     0
176
     1
290
     0
176
     1
290
     0
176
     1
290
     0
176
     1
290
     0
176
     1
290
     0
176
     1
 90
       50
176
     1
 40
0.0
176
     1
 40
1.0
176
     1
 90
        0
176
     1
 62
    18
420
        0
176
     1
 90
       50
176
     1
 90
        3
176
     1
 62
     5
420
      255
176
     1
290
     0
176
     1
 90
       50
176
     1
 90
       50
176
     1
 90
       50
176
     1
290
     0
176
     1
 90
       50
176
     1
 62
   256
176
     0
 40
1.0
176
     0
 90
        2
176
     1
  1
strokes_ogs.tif
176
     1
290
     0
176
     1
 40
1.0
176
     1
 40
1.0
176
     1
  0
VISUALSTYLE
  5
2D
102
{ACAD_REACTORS
330
29
102
}
330
29
100
AcDbVisualStyle
  2
GouraudWithEdges
 70
     3
177
     3
291
     1
 70
    58
 90
        2
176
     1
 90
        2
176
     1
 90
        1
176
     1
 90
        2
176
     1
 40
0.6
176
     1
 40
30.0
176
     1
 62
     7
420
 16777215
176
     1
 90
        1
176
     1
 90
        0
176
     1
 62
     7
176
     1
 62
   257
176
     1
 90
        1
176
     1
 90
        1
176
     1
 40
1.0
176
     1
 90
        0
176
     1
 62
   257
176
     1
 40
1.0
176
     1
 90
        1
176
     1
 90
        6
176
     1
 90
        2
176
     1
 62
     7
176
     1
 90
        5
176
     1
 90
        0
176
     1
 90
        0
176
     1
290
     0
176
     1
 90
       13
176
     1
 40
0.0
176
     1
 90
        0
176
     1
290
     0
176
     1
290
     1
176
     1
290
     1
176
     1
290
     0
176
     1
290
     0
176
     1
290
     0
176
     1
290
     0
176
     1
290
     0
176
     1
290
     0
176
     1
 90
       50
176
     1
 40
0.0
176
     1
 40
1.0
176
     1
 90
        0
176
     1
 62
    18
420
        0
176
     1
 90
       50
176
     1
 90
        3
176
     1
 62
     5
420
      255
176
     1
290
     0
176
     1
 90
       50
176
     1
 90
       50
176
     1
 90
       50
176
     1
290
     0
176
     1
 90
       50
176
     1
 62
   256
176
     0
 40
1.0
176
     0
 90
        2
176
     1
  1
strokes_ogs.tif
176
     1
290
     0
176
     1
 40
1.0
176
     1
 40
1.0
176
     1
  0
VISUALSTYLE
  5
31
102
{ACAD_REACTORS
330
29
102
}
330
29
100
AcDbVisualStyle
  2
Hidden
 70
     6
177
     3
291
     0
 70
    58
 90
        1
176
     1
 90
        2
176
     1
 90
        2
176
     1
 90
        0
176
     1
 40
0.6
176
     1
 40
30.0
176
     1
 62
     7
420
 16777215
176
     1
 90
        2
176
     1
 90
        2
176
     1
 62
     7
176
     1
 62
   257
176
     1
 90
        2
176
     1
 90
        1
176
     1
 40
40.0
176
     1
 90
        0
176
     1
 62
   257
176
     1
 40
1.0
176
     1
 90
        1
176
     1
 90
        6
176
     1
 90
        2
176
     1
 62
     7
176
     1
 90
        3
176
     1
 90
        0
176
     1
 90
        0
176
     1
290
     0
176
     1
 90
        1
176
     1
 40
0.0
176
     1
 90
        0
176
     1
290
     0
176
     1
290
     1
176
     1
290
     1
176
     1
290
     0
176
     1
290
     0
176
     1
290
     0
176
     1
290
     0
176
     1
290
     0
176
     1
290
     0
176
     1
 90
       50
176
     1
 40
0.0
176
     1
 40
1.0
176
     1
 90
        0
176
     1
 62
    18
420
        0
176
     1
 90
       50
176
     1
 90
        3
176
     1
 62
     5
420
      255
176
     1
290
     0
176
     1
 90
       50
176
     1
 90
       50
176
     1
 90
       50
176
     1
290
     0
176
     1
 90
       50
176
     1
 62
   256
176
     0
 40
1.0
176
     0
 90
        2
176
     1
  1
strokes_ogs.tif
176
     1
290
     0
176
     1
 40
1.0
176
     1
 40
1.0
176
     1
  0
VISUALSTYLE
  5
3F
102
{ACAD_REACTORS
330
29
102
}
330
29
100
AcDbVisualStyle
  2
JitterOff
 70
    20
177
     3
291
     1
 70
    58
 90
        2
176
     0
 90
        2
176
     0
 90
        0
176
     0
 90
        0
176
     0
 40
0.6
176
     0
 40
30.0
176
     0
 62
     7
420
 16777215
176
     0
 90
        1
176
     0
 90
        4
176
     0
 62
     7
176
     0
 62
   257
176
     0
 90
        1
176
     0
 90
        1
176
     0
 40
1.0
176
     0
 90
       10
176
     2
 62
     7
176
     0
 40
1.0
176
     0
 90
        1
176
     0
 90
        6
176
     0
 90
        2
176
     0
 62
     7
176
     0
 90
        5
176
     0
 90
        0
176
     0
 90
        0
176
     0
290
     0
176
     0
 90
        1
176
     0
 40
0.0
176
     0
 90
        0
176
     0
290
     0
176
     0
290
     1
176
     0
290
     1
176
     0
290
     0
176
     0
290
     0
176
     0
290
     0
176
     0
290
     0
176
     0
290
     0
176
     0
290
     0
176
     0
 90
       50
176
     0
 40
0.0
176
     0
 40
1.0
176
     0
 90
        0
176
     0
 62
    18
420
        0
176
     0
 90
       50
176
     0
 90
        3
176
     0
 62
     5
420
      255
176
     0
290
     0
176
     0
 90
       50
176
     0
 90
       50
176
     0
 90
       50
176
     0
290
     0
176
     0
 90
       50
176
     0
 62
   256
176
     0
 40
1.0
176
     0
 90
        2
176
     0
  1
strokes_ogs.tif
176
     0
290
     0
176
     0
 40
1.0
176
     0
 40
1.0
176
     0
  0
VISUALSTYLE
  5
37
102
{ACAD_REACTORS
330
29
102
}
330
29
100
AcDbVisualStyle
  2
Linepattern
 70
    14
177
     3
291
     1
 70
    58
 90
        2
176
     1
 90
        2
176
     1
 90
        0
176
     1
 90
        0
176
     1
 40
0.6
176
     1
 40
30.0
176
     1
 62
     7
420
 16777215
176
     1
 90
        1
176
     1
 90
        4
176
     1
 62
     7
176
     1
 62
   257
176
     1
 90
        7
176
     1
 90
        7
176
     1
 40
1.0
176
     1
 90
        8
176
     1
 62
     7
176
     1
 40
1.0
176
     1
 90
        1
176
     1
 90
        6
176
     1
 90
        2
176
     1
 62
     7
176
     1
 90
        5
176
     1
 90
        0
176
     1
 90
        0
176
     1
290
     0
176
     1
 90
        1
176
     1
 40
0.0
176
     1
 90
        0
176
     1
290
     0
176
     1
290
     1
176
     1
290
     1
176
     1
290
     0
176
     1
290
     0
176
     1
290
     0
176
     1
290
     0
176
     1
290
     0
176
     1
290
     0
176
     1
 90
       50
176
     1
 40
0.0
176
     1
 40
1.0
176
     1
 90
        0
176
     1
 62
    18
420
        0
176
     1
 90
       50
176
     1
 90
        3
176
     1
 62
     5
420
      255
176
     1
290
     0
176
     1
 90
       50
176
     1
 90
       50
176
     1
 90
       50
176
     1
290
     0
176
     1
 90
       50
176
     1
 62
   256
176
     0
 40
1.0
176
     0
 90
        2
176
     1
  1
strokes_ogs.tif
176
     1
290
     0
176
     1
 40
1.0
176
     1
 40
1.0
176
     1
  0
VISUALSTYLE
  5
40
102
{ACAD_REACTORS
330
29
102
}
330
29
100
AcDbVisualStyle
  2
OverhangOff
 70
    21
177
     3
291
     1
 70
    58
 90
        2
176
     0
 90
        2
176
     0
 90
        0
176
     0
 90
        0
176
     0
 40
0.6
176
     0
 40
30.0
176
     0
 62
     7
420
 16777215
176
     0
 90
        1
176
     0
 90
        4
176
     0
 62
     7
176
     0
 62
   257
176
     0
 90
        1
176
     0
 90
        1
176
     0
 40
1.0
176
     0
 90
        9
176
     2
 62
     7
176
     0
 40
1.0
176
     0
 90
        1
176
     0
 90
        6
176
     0
 90
        2
176
     0
 62
     7
176
     0
 90
        5
176
     0
 90
        0
176
     0
 90
        0
176
     0
290
     0
176
     0
 90
        1
176
     0
 40
0.0
176
     0
 90
        0
176
     0
290
     0
176
     0
290
     1
176
     0
290
     1
176
     0
290
     0
176
     0
290
     0
176
     0
290
     0
176
     0
290
     0
176
     0
290
     0
176
     0
290
     0
176
     0
 90
       50
176
     0
 40
0.0
176
     0
 40
1.0
176
     0
 90
        0
176
     0
 62
    18
420
        0
176
     0
 90
       50
176
     0
 90
        3
176
     0
 62
     5
420
      255
176
     0
290
     0
176
     0
 90
       50
176
     0
 90
       50
176
     0
 90
       50
176
     0
290
     0
176
     0
 90
       50
176
     0
 62
   256
176
     0
 40
1.0
176
     0
 90
        2
176
     0
  1
strokes_ogs.tif
176
     0
290
     0
176
     0
 40
1.0
176
     0
 40
1.0
176
     0
  0
VISUALSTYLE
  5
33
102
{ACAD_REACTORS
330
29
102
}
330
29
100
AcDbVisualStyle
  2
Realistic
 70
     8
177
     3
291
     0
 70
    58
 90
        2
176
     1
 90
        3
176
     1
 90
        0
176
     1
 90
        2
176
     1
 40
0.6
176
     1
 40
30.0
176
     1
 62
     7
420
 16777215
176
     1
 90
        0
176
     1
 90
        0
176
     1
 62
     7
176
     1
 62
   257
176
     1
 90
        1
176
     1
 90
        1
176
     1
 40
1.0
176
     1
 90
        8
176
     1
 62
   257
176
     1
 40
1.0
176
     1
 90
        1
176
     1
 90
        6
176
     1
 90
        2
176
     1
 62
     7
176
     1
 90
        3
176
     1
 90
        0
176
     1
 90
        0
176
     1
290
     0
176
     1
 90
       13
176
     1
 40
0.0
176
     1
 90
        0
176
     1
290
     0
176
     1
290
     1
176
     1
290
     1
176
     1
290
     0
176
     1
290
     0
176
     1
290
     0
176
     1
290
     0
176
     1
290
     0
176
     1
290
     0
176
     1
 90
       50
176
     1
 40
0.0
176
     1
 40
1.0
176
     1
 90
        0
176
     1
 62
    18
420
        0
176
     1
 90
       50
176
     1
 90
        3
176
     1
 62
     5
420
      255
176
     1
290
     0
176
     1
 90
       50
176
     1
 90
       50
176
     1
 90
       50
176
     1
290
     0
176
     1
 90
       50
176
     1
 62
   256
176
     0
 40
1.0
176
     0
 90
        2
176
     1
  1
strokes_ogs.tif
176
     1
290
     0
176
     1
 40
1.0
176
     1
 40
1.0
176
     1
  0
VISUALSTYLE
  5
3E
102
{ACAD_REACTORS
330
29
102
}
330
29
100
AcDbVisualStyle
  2
Shaded
 70
    27
177
     3
291
     0
 70
    58
 90
        2
176
     1
 90
        2
176
     1
 90
        1
176
     1
 90
        2
176
     1
 40
0.6
176
     1
 40
30.0
176
     1
 62
     7
420
 16777215
176
     1
 90
        0
176
     1
 90
        4
176
     1
 62
     7
176
     1
 62
   257
176
     1
 90
        1
176
     1
 90
        1
176
     1
 40
1.0
176
     1
 90
        8
176
     1
 62
   257
176
     1
 40
1.0
176
     1
 90
        1
176
     1
 90
        6
176
     1
 90
        2
176
     1
 62
     8
420
  7895160
176
     1
 90
        3
176
     1
 90
        0
176
     1
 90
        0
176
     1
290
     0
176
     1
 90
        5
176
     1
 40
0.0
176
     1
 90
        0
176
     1
290
     0
176
     1
290
     1
176
     1
290
     1
176
     1
290
     0
176
     1
290
     0
176
     1
290
     0
176
     1
290
     0
176
     1
290
     0
176
     1
290
     0
176
     1
 90
       50
176
     1
 40
0.0
176
     1
 40
1.0
176
     1
 90
        0
176
     1
 62
    18
420
        0
176
     1
 90
       50
176
     1
 90
        3
176
     1
 62
     5
420
      255
176
     1
290
     0
176
     1
 90
       50
176
     1
 90
       50
176
     1
 90
       50
176
     1
290
     0
176
     1
 90
       50
176
     1
 62
   256
176
     0
 40
1.0
176
     0
 90
        2
176
     1
  1
strokes_ogs.tif
176
     1
290
     0
176
     1
 40
1.0
176
     1
 40
1.0
176
     1
  0
VISUALSTYLE
  5
3D
102
{ACAD_REACTORS
330
29
102
}
330
29
100
AcDbVisualStyle
  2
Shaded with edges
 70
    26
177
     3
291
     0
 70
    58
 90
        2
176
     1
 90
        2
176
     1
 90
        1
176
     1
 90
        2
176
     1
 40
0.6
176
     1
 40
30.0
176
     1
 62
     7
420
 16777215
176
     1
 90
        1
176
     1
 90
        2
176
     1
 62
     7
176
     1
 62
   257
176
     1
 90
        2
176
     1
 90
        1
176
     1
 40
1.0
176
     1
 90
        8
176
     1
 62
   257
176
     1
 40
1.0
176
     1
 90
        1
176
     1
 90
        6
176
     1
 90
        2
176
     1
 62
     7
176
     1
 90
        3
176
     1
 90
        0
176
     1
 90
        0
176
     1
290
     0
176
     1
 90
        5
176
     1
 40
0.0
176
     1
 90
        0
176
     1
290
     0
176
     1
290
     1
176
     1
290
     1
176
     1
290
     0
176
     1
290
     0
176
     1
290
     0
176
     1
290
     0
176
     1
290
     0
176
     1
290
     0
176
     1
 90
       50
176
     1
 40
0.0
176
     1
 40
1.0
176
     1
 90
        0
176
     1
 62
    18
420
        0
176
     1
 90
       50
176
     1
 90
        3
176
     1
 62
     5
420
      255
176
     1
290
     0
176
     1
 90
       50
176
     1
 90
       50
176
     1
 90
       50
176
     1
290
     0
176
     1
 90
       50
176
     1
 62
   256
176
     0
 40
1.0
176
     0
 90
        2
176
     1
  1
strokes_ogs.tif
176
     1
290
     0
176
     1
 40
1.0
176
     1
 40
1.0
176
     1
  0
VISUALSTYLE
  5
3A
102
{ACAD_REACTORS
330
29
102
}
330
29
100
AcDbVisualStyle
  2
Shades of Gray
 70
    23
177
     3
291
     0
 70
    58
 90
        2
176
     1
 90
        2
176
     1
 90
        3
176
     1
 90
        0
176
     1
 40
0.6
176
     1
 40
30.0
176
     1
 62
     7
420
 16777215
176
     1
 90
        2
176
     1
 90
        2
176
     1
 62
     7
176
     1
 62
     7
176
     1
 90
        1
176
     1
 90
        1
176
     1
 40
40.0
176
     1
 90
        8
176
     1
 62
     7
176
     1
 40
1.0
176
     1
 90
        1
176
     1
 90
        6
176
     1
 90
        2
176
     1
 62
     7
176
     1
 90
        3
176
     1
 90
        0
176
     1
 90
        0
176
     1
290
     0
176
     1
 90
        1
176
     1
 40
0.0
176
     1
 90
        0
176
     1
290
     0
176
     1
290
     1
176
     1
290
     1
176
     1
290
     0
176
     1
290
     0
176
     1
290
     0
176
     1
290
     0
176
     1
290
     0
176
     1
290
     0
176
     1
 90
       50
176
     1
 40
0.0
176
     1
 40
1.0
176
     1
 90
        0
176
     1
 62
    18
420
        0
176
     1
 90
       50
176
     1
 90
        3
176
     1
 62
     5
420
      255
176
     1
290
     0
176
     1
 90
       50
176
     1
 90
       50
176
     1
 90
       50
176
     1
290
     0
176
     1
 90
       50
176
     1
 62
   256
176
     0
 40
1.0
176
     0
 90
        2
176
     1
  1
strokes_ogs.tif
176
     1
290
     0
176
     1
 40
1.0
176
     1
 40
1.0
176
     1
  0
VISUALSTYLE
  5
3B
102
{ACAD_REACTORS
330
29
102
}
330
29
100
AcDbVisualStyle
  2
Sketchy
 70
    24
177
     3
291
     0
 70
    58
 90
        1
176
     1
 90
        2
176
     1
 90
        2
176
     1
 90
        0
176
     1
 40
0.6
176
     1
 40
30.0
176
     1
 62
     7
420
 16777215
176
     1
 90
        2
176
     1
 90
        2
176
     1
 62
     7
176
     1
 62
     7
176
     1
 90
        1
176
     1
 90
        1
176
     1
 40
40.0
176
     1
 90
       11
176
     1
 62
     7
176
     1
 40
1.0
176
     1
 90
        1
176
     1
 90
        6
176
     1
 90
        2
176
     1
 62
     7
176
     1
 90
        6
176
     1
 90
        0
176
     1
 90
        0
176
     1
290
     0
176
     1
 90
        1
176
     1
 40
0.0
176
     1
 90
        0
176
     1
290
     0
176
     1
290
     1
176
     1
290
     1
176
     1
290
     0
176
     1
290
     0
176
     1
290
     0
176
     1
290
     0
176
     1
290
     0
176
     1
290
     0
176
     1
 90
       50
176
     1
 40
0.0
176
     1
 40
1.0
176
     1
 90
        0
176
     1
 62
    18
420
        0
176
     1
 90
       50
176
     1
 90
        3
176
     1
 62
     5
420
      255
176
     1
290
     0
176
     1
 90
       50
176
     1
 90
       50
176
     1
 90
       50
176
     1
290
     0
176
     1
 90
       50
176
     1
 62
   256
176
     0
 40
1.0
176
     0
 90
        2
176
     1
  1
strokes_ogs.tif
176
     1
290
     0
176
     1
 40
1.0
176
     1
 40
1.0
176
     1
  0
VISUALSTYLE
  5
36
102
{ACAD_REACTORS
330
29
102
}
330
29
100
AcDbVisualStyle
  2
Thicken
 70
    13
177
     3
291
     1
 70
    58
 90
        2
176
     1
 90
        2
176
     1
 90
        0
176
     1
 90
        0
176
     1
 40
0.6
176
     1
 40
30.0
176
     1
 62
     7
420
 16777215
176
     1
 90
        1
176
     1
 90
        4
176
     1
 62
     7
176
     1
 62
   257
176
     1
 90
        1
176
     1
 90
        1
176
     1
 40
1.0
176
     1
 90
       12
176
     1
 62
     7
176
     1
 40
1.0
176
     1
 90
        1
176
     1
 90
        6
176
     1
 90
        2
176
     1
 62
     7
176
     1
 90
        5
176
     1
 90
        0
176
     1
 90
        0
176
     1
290
     0
176
     1
 90
        1
176
     1
 40
0.0
176
     1
 90
        0
176
     1
290
     0
176
     1
290
     1
176
     1
290
     1
176
     1
290
     0
176
     1
290
     0
176
     1
290
     0
176
     1
290
     0
176
     1
290
     0
176
     1
290
     0
176
     1
 90
       50
176
     1
 40
0.0
176
     1
 40
1.0
176
     1
 90
        0
176
     1
 62
    18
420
        0
176
     1
 90
       50
176
     1
 90
        3
176
     1
 62
     5
420
      255
176
     1
290
     0
176
     1
 90
       50
176
     1
 90
       50
176
     1
 90
       50
176
     1
290
     0
176
     1
 90
       50
176
     1
 62
   256
176
     0
 40
1.0
176
     0
 90
        2
176
     1
  1
strokes_ogs.tif
176
     1
290
     0
176
     1
 40
1.0
176
     1
 40
1.0
176
     1
  0
VISUALSTYLE
  5
30
102
{ACAD_REACTORS
330
29
102
}
330
29
100
AcDbVisualStyle
  2
Wireframe
 70
     5
177
     3
291
     0
 70
    58
 90
        0
176
     1
 90
        2
176
     1
 90
        0
176
     1
 90
        0
176
     1
 40
0.6
176
     1
 40
30.0
176
     1
 62
     7
420
 16777215
176
     1
 90
        1
176
     1
 90
        4
176
     1
 62
     7
176
     1
 62
   257
176
     1
 90
        1
176
     1
 90
        1
176
     1
 40
1.0
176
     1
 90
        0
176
     1
 62
   257
176
     1
 40
1.0
176
     1
 90
        1
176
     1
 90
        6
176
     1
 90
        2
176
     1
 62
     7
176
     1
 90
        3
176
     1
 90
        0
176
     1
 90
        0
176
     1
290
     0
176
     1
 90
        1
176
     1
 40
0.0
176
     1
 90
        0
176
     1
290
     0
176
     1
290
     1
176
     1
290
     1
176
     1
290
     0
176
     1
290
     0
176
     1
290
     0
176
     1
290
     0
176
     1
290
     0
176
     1
290
     0
176
     1
 90
       50
176
     1
 40
0.0
176
     1
 40
1.0
176
     1
 90
        0
176
     1
 62
    18
420
        0
176
     1
 90
       50
176
     1
 90
        3
176
     1
 62
     5
420
      255
176
     1
290
     0
176
     1
 90
       50
176
     1
 90
       50
176
     1
 90
       50
176
     1
290
     0
176
     1
 90
       50
176
     1
 62
   256
176
     0
 40
1.0
176
     0
 90
        2
176
     1
  1
strokes_ogs.tif
176
     1
290
     0
176
     1
 40
1.0
176
     1
 40
1.0
176
     1
  0
VISUALSTYLE
  5
3C
102
{ACAD_REACTORS
330
29
102
}
330
29
100
AcDbVisualStyle
  2
X-Ray
 70
    25
177
     3
291
     0
 70
    58
 90
        2
176
     1
 90
        2
176
     1
 90
        1
176
     1
 90
        1
176
     1
 40
0.5
176
     1
 40
30.0
176
     1
 62
     7
420
 16777215
176
     1
 90
        1
176
     1
 90
        0
176
     1
 62
     7
176
     1
 62
   257
176
     1
 90
        1
176
     1
 90
        1
176
     1
 40
1.0
176
     1
 90
        8
176
     1
 62
     7
176
     1
 40
1.0
176
     1
 90
        1
176
     1
 90
        6
176
     1
 90
        2
176
     1
 62
     7
176
     1
 90
        3
176
     1
 90
        0
176
     1
 90
        0
176
     1
290
     0
176
     1
 90
       13
176
     1
 40
0.0
176
     1
 90
        0
176
     1
290
     0
176
     1
290
     1
176
     1
290
     1
176
     1
290
     0
176
     1
290
     0
176
     1
290
     0
176
     1
290
     0
176
     1
290
     0
176
     1
290
     0
176
     1
 90
       50
176
     1
 40
0.0
176
     1
 40
1.0
176
     1
 90
        0
176
     1
 62
    18
420
        0
176
     1
 90
       50
176
     1
 90
        3
176
     1
 62
     5
420
      255
176
     1
290
     0
176
     1
 90
       50
176
     1
 90
       50
176
     1
 90
       50
176
     1
290
     0
176
     1
 90
       50
176
     1
 62
   256
176
     0
 40
1.0
176
     0
 90
        2
176
     1
  1
strokes_ogs.tif
176
     1
290
     0
176
     1
 40
1.0
176
     1
 40
1.0
176
     1
  0
DICTIONARYVAR
  5
AF
102
{ACAD_REACTORS
330
AA
102
}
330
AA
100
DictionaryVariables
280
     0
  1
1:1
  0
DICTIONARYVAR
  5
AC
102
{ACAD_REACTORS
330
AA
102
}
330
AA
100
DictionaryVariables
280
     0
  1
STANDARD
  0
DICTIONARYVAR
  5
AB
102
{ACAD_REACTORS
330
AA
102
}
330
AA
100
DictionaryVariables
280
     0
  1
STANDARD
  0
DICTIONARYVAR
  5
AD
102
{ACAD_REACTORS
330
AA
102
}
330
AA
100
DictionaryVariables
280
     0
  1
Imperial24
  0
DICTIONARYVAR
  5
AE
102
{ACAD_REACTORS
330
AA
102
}
330
AA
100
DictionaryVariables
280
     0
  1
Imperial24
  0
DICTIONARY
  5
1A
330
19
100
AcDbDictionary
280
     1
281
     1
  3
BUMPTILE
360
1C
  3
DIFFUSETILE
360
1B
  3
OPACITYTILE
360
1F
  3
REFLECTIONTILE
360
1E
  3
REFRACTIONTILE
360
20
  3
SPECULARTILE
360
1D
  0
DICTIONARY
  5
12
330
11
100
AcDbDictionary
280
     1
281
     1
  3
BUMPTILE
360
14
  3
DIFFUSETILE
360
13
  3
OPACITYTILE
360
17
  3
REFLECTIONTILE
360
16
  3
REFRACTIONTILE
360
18
  3
SPECULARTILE
360
15
  0
DICTIONARY
  5
22
330
21
100
AcDbDictionary
280
     1
281
     1
  3
BUMPTILE
360
24
  3
DIFFUSETILE
360
23
  3
OPACITYTILE
360
27
  3
REFLECTIONTILE
360
26
  3
REFRACTIONTILE
360
28
  3
SPECULARTILE
360
25
  0
DICTIONARY
  5
B0
330
65
100
AcDbDictionary
280
     1
281
     1
  3
ACAD_ROUNDTRIP_2008_TABLESTYLE_CELLSTYLEMAP
360
B1
  0
XRECORD
  5
1C
102
{ACAD_REACTORS
330
1A
102
}
330
1A
100
AcDbXrecord
280
     1
270
     1
271
     1
  0
XRECORD
  5
1B
102
{ACAD_REACTORS
330
1A
102
}
330
1A
100
AcDbXrecord
280
     1
270
     1
271
     1
  0
XRECORD
  5
1F
102
{ACAD_REACTORS
330
1A
102
}
330
1A
100
AcDbXrecord
280
     1
270
     1
271
     1
  0
XRECORD
  5
1E
102
{ACAD_REACTORS
330
1A
102
}
330
1A
100
AcDbXrecord
280
     1
270
     1
271
     1
  0
XRECORD
  5
20
102
{ACAD_REACTORS
330
1A
102
}
330
1A
100
AcDbXrecord
280
     1
270
     1
271
     1
  0
XRECORD
  5
1D
102
{ACAD_REACTORS
330
1A
102
}
330
1A
100
AcDbXrecord
280
     1
270
     1
271
     1
  0
XRECORD
  5
14
102
{ACAD_REACTORS
330
12
102
}
330
12
100
AcDbXrecord
280
     1
270
     1
271
     1
  0
XRECORD
  5
13
102
{ACAD_REACTORS
330
12
102
}
330
12
100
AcDbXrecord
280
     1
270
     1
271
     1
  0
XRECORD
  5
17
102
{ACAD_REACTORS
330
12
102
}
330
12
100
AcDbXrecord
280
     1
270
     1
271
     1
  0
XRECORD
  5
16
102
{ACAD_REACTORS
330
12
102
}
330
12
100
AcDbXrecord
280
     1
270
     1
271
     1
  0
XRECORD
  5
18
102
{ACAD_REACTORS
330
12
102
}
330
12
100
AcDbXrecord
280
     1
270
     1
271
     1
  0
XRECORD
  5
15
102
{ACAD_REACTORS
330
12
102
}
330
12
100
AcDbXrecord
280
     1
270
     1
271
     1
  0
XRECORD
  5
24
102
{ACAD_REACTORS
330
22
102
}
330
22
100
AcDbXrecord
280
     1
270
     1
271
     1
  0
XRECORD
  5
23
102
{ACAD_REACTORS
330
22
102
}
330
22
100
AcDbXrecord
280
     1
270
     1
271
     1
  0
XRECORD
  5
27
102
{ACAD_REACTORS
330
22
102
}
330
22
100
AcDbXrecord
280
     1
270
     1
271
     1
  0
XRECORD
  5
26
102
{ACAD_REACTORS
330
22
102
}
330
22
100
AcDbXrecord
280
     1
270
     1
271
     1
  0
XRECORD
  5
28
102
{ACAD_REACTORS
330
22
102
}
330
22
100
AcDbXrecord
280
     1
270
     1
271
     1
  0
XRECORD
  5
25
102
{ACAD_REACTORS
330
22
102
}
330
22
100
AcDbXrecord
280
     1
270
     1
271
     1
  0
CELLSTYLEMAP
  5
B1
102
{ACAD_REACTORS
330
B0
102
}
330
B0
100
AcDbCellStyleMap
 90
        3
300
CELLSTYLE
  1
TABLEFORMAT_BEGIN
 90
        5
170
     1
 91
        0
 92
    32768
 62
   257
 93
        1
300
CONTENTFORMAT
  1
CONTENTFORMAT_BEGIN
 90
        0
 91
        0
 92
      512
 93
        0
300

 40
0.0
140
1.0
 94
        5
 62
     0
340
55
144
0.25
309
CONTENTFORMAT_END
171
     0
 94
        0
309
TABLEFORMAT_END
  1
CELLSTYLE_BEGIN
 90
        1
 91
        1
300
_TITLE
309
CELLSTYLE_END
300
CELLSTYLE
  1
TABLEFORMAT_BEGIN
 90
        5
170
     1
 91
        0
 92
        0
 62
   257
 93
        1
300
CONTENTFORMAT
  1
CONTENTFORMAT_BEGIN
 90
        0
 91
        0
 92
      512
 93
        0
300

 40
0.0
140
1.0
 94
        5
 62
     0
340
55
144
0.18
309
CONTENTFORMAT_END
171
     0
 94
        0
309
TABLEFORMAT_END
  1
CELLSTYLE_BEGIN
 90
        2
 91
        1
300
_HEADER
309
CELLSTYLE_END
300
CELLSTYLE
  1
TABLEFORMAT_BEGIN
 90
        5
170
     1
 91
        0
 92
        0
 62
   257
 93
        1
300
CONTENTFORMAT
  1
CONTENTFORMAT_BEGIN
 90
        0
 91
        0
 92
      512
 93
        0
300

 40
0.0
140
1.0
 94
        2
 62
     0
340
55
144
0.18
309
CONTENTFORMAT_END
171
     0
 94
        0
309
TABLEFORMAT_END
  1
CELLSTYLE_BEGIN
 90
        3
 91
        2
300
_DATA
309
CELLSTYLE_END
  0
ENDSEC
  0
EOF
