  0
SECTION
  2
HEADER
  9
$ACADVER
  1
AC1032
  9
$ACADMAINTVER
 90
      228
  9
$DWGCODEPAGE
  3
ANSI_1252
  9
$REQUIREDVERSIONS
160
                 0
  9
$INSBASE
 10
0.0
 20
0.0
 30
0.0
  9
$EXTMIN
 10
1.000000000000000E+20
 20
1.000000000000000E+20
 30
1.000000000000000E+20
  9
$EXTMAX
 10
-1.000000000000000E+20
 20
-1.000000000000000E+20
 30
-1.000000000000000E+20
  9
$LIMMIN
 10
0.0
 20
0.0
  9
$LIMMAX
 10
12.0
 20
9.0
  9
$ORTHOMODE
 70
     0
  9
$REGENMODE
 70
     1
  9
$FILLMODE
 70
     1
  9
$QTEXTMODE
 70
     0
  9
$MIRRTEXT
 70
     0
  9
$LTSCALE
 40
1.0
  9
$ATTMODE
 70
     1
  9
$TEXTSIZE
 40
0.2
  9
$TRACEWID
 40
0.05
  9
$TEXTSTYLE
  7
Standard
  9
$CLAYER
  8
0
  9
$CELTYPE
  6
ByLayer
  9
$CECOLOR
 62
   256
  9
$CELTSCALE
 40
1.0
  9
$DISPSILH
 70
     0
  9
$DIMSCALE
 40
1.0
  9
$DIMASZ
 40
0.18
  9
$DIMEXO
 40
0.0625
  9
$DIMDLI
 40
0.38
  9
$DIMRND
 40
0.0
  9
$DIMDLE
 40
0.0
  9
$DIMEXE
 40
0.18
  9
$DIMTP
 40
0.0
  9
$DIMTM
 40
0.0
  9
$DIMTXT
 40
0.18
  9
$DIMCEN
 40
0.09
  9
$DIMTSZ
 40
0.0
  9
$DIMTOL
 70
     0
  9
$DIMLIM
 70
     0
  9
$DIMTIH
 70
     1
  9
$DIMTOH
 70
     1
  9
$DIMSE1
 70
     0
  9
$DIMSE2
 70
     0
  9
$DIMTAD
 70
     0
  9
$DIMZIN
 70
     0
  9
$DIMBLK
  1

  9
$DIMASO
 70
     1
  9
$DIMSHO
 70
     1
  9
$DIMPOST
  1

  9
$DIMAPOST
  1

  9
$DIMALT
 70
     0
  9
$DIMALTD
 70
     2
  9
$DIMALTF
 40
25.4
  9
$DIMLFAC
 40
1.0
  9
$DIMTOFL
 70
     0
  9
$DIMTVP
 40
0.0
  9
$DIMTIX
 70
     0
  9
$DIMSOXD
 70
     0
  9
$DIMSAH
 70
     0
  9
$DIMBLK1
  1

  9
$DIMBLK2
  1

  9
$DIMSTYLE
  2
Standard
  9
$DIMCLRD
 70
     0
  9
$DIMCLRE
 70
     0
  9
$DIMCLRT
 70
     0
  9
$DIMTFAC
 40
1.0
  9
$DIMGAP
 40
0.09
  9
$DIMJUST
 70
     0
  9
$DIMSD1
 70
     0
  9
$DIMSD2
 70
     0
  9
$DIMTOLJ
 70
     1
  9
$DIMTZIN
 70
     0
  9
$DIMALTZ
 70
     0
  9
$DIMALTTZ
 70
     0
  9
$DIMUPT
 70
     0
  9
$DIMDEC
 70
     4
  9
$DIMTDEC
 70
     4
  9
$DIMALTU
 70
     2
  9
$DIMALTTD
 70
     2
  9
$DIMTXSTY
  7
Standard
  9
$DIMAUNIT
 70
     0
  9
$DIMADEC
 70
     0
  9
$DIMALTRND
 40
0.0
  9
$DIMAZIN
 70
     0
  9
$DIMDSEP
 70
    46
  9
$DIMATFIT
 70
     3
  9
$DIMFRAC
 70
     0
  9
$DIMLDRBLK
  1

  9
$DIMLUNIT
 70
     2
  9
$DIMLWD
 70
    -2
  9
$DIMLWE
 70
    -2
  9
$DIMTMOVE
 70
     0
  9
$DIMFXL
 40
1.0
  9
$DIMFXLON
 70
     0
  9
$DIMJOGANG
 40
0.7853981633974483
  9
$DIMTFILL
 70
     0
  9
$DIMTFILLCLR
 70
     0
  9
$DIMARCSYM
 70
     0
  9
$DIMLTYPE
  6

  9
$DIMLTEX1
  6

  9
$DIMLTEX2
  6

  9
$DIMTXTDIRECTION
 70
     0
  9
$LUNITS
 70
     2
  9
$LUPREC
 70
     4
  9
$SKETCHINC
 40
0.1
  9
$FILLETRAD
 40
0.0
  9
$AUNITS
 70
     0
  9
$AUPREC
 70
     0
  9
$MENU
  1
.
  9
$ELEVATION
 40
0.0
  9
$PELEVATION
 40
0.0
  9
$THICKNESS
 40
0.0
  9
$LIMCHECK
 70
     0
  9
$CHAMFERA
 40
0.0
  9
$CHAMFERB
 40
0.0
  9
$CHAMFERC
 40
0.0
  9
$CHAMFERD
 40
0.0
  9
$SKPOLY
 70
     0
  9
$TDCREATE
 40
2460256.438472222
  9
$TDUCREATE
 40
2460256.646805556
  9
$TDUPDATE
 40
2460256.438472222
  9
$TDUUPDATE
 40
2460256.646805556
  9
$TDINDWG
 40
0.0000000000
  9
$TDUSRTIMER
 40
0.0000000000
  9
$USRTIMER
 70
     1
  9
$ANGBASE
 50
0.0
  9
$ANGDIR
 70
     0
  9
$PDMODE
 70
     0
  9
$PDSIZE
 40
0.0
  9
$PLINEWID
 40
0.0
  9
$SPLFRAME
 70
     0
  9
$SPLINETYPE
 70
     6
  9
$SPLINESEGS
 70
     8
  9
$HANDSEED
  5
B3
  9
$SURFTAB1
 70
     6
  9
$SURFTAB2
 70
     6
  9
$SURFTYPE
 70
     6
  9
$SURFU
 70
     6
  9
$SURFV
 70
     6
  9
$UCSBASE
  2

  9
$UCSNAME
  2

  9
$UCSORG
 10
0.0
 20
0.0
 30
0.0
  9
$UCSXDIR
 10
1.0
 20
0.0
 30
0.0
  9
$UCSYDIR
 10
0.0
 20
1.0
 30
0.0
  9
$UCSORTHOREF
  2

  9
$UCSORTHOVIEW
 70
     0
  9
$UCSORGTOP
 10
0.0
 20
0.0
 30
0.0
  9
$UCSORGBOTTOM
 10
0.0
 20
0.0
 30
0.0
  9
$UCSORGLEFT
 10
0.0
 20
0.0
 30
0.0
  9
$UCSORGRIGHT
 10
0.0
 20
0.0
 30
0.0
  9
$UCSORGFRONT
 10
0.0
 20
0.0
 30
0.0
  9
$UCSORGBACK
 10
0.0
 20
0.0
 30
0.0
  9
$PUCSBASE
  2

  9
$PUCSNAME
  2

  9
$PUCSORG
 10
0.0
 20
0.0
 30
0.0
  9
$PUCSXDIR
 10
1.0
 20
0.0
 30
0.0
  9
$PUCSYDIR
 10
0.0
 20
1.0
 30
0.0
  9
$PUCSORTHOREF
  2

  9
$PUCSORTHOVIEW
 70
     0
  9
$PUCSORGTOP
 10
0.0
 20
0.0
 30
0.0
  9
$PUCSORGBOTTOM
 10
0.0
 20
0.0
 30
0.0
  9
$PUCSORGLEFT
 10
0.0
 20
0.0
 30
0.0
  9
$PUCSORGRIGHT
 10
0.0
 20
0.0
 30
0.0
  9
$PUCSORGFRONT
 10
0.0
 20
0.0
 30
0.0
  9
$PUCSORGBACK
 10
0.0
 20
0.0
 30
0.0
  9
$USERI1
 70
     0
  9
$USERI2
 70
     0
  9
$USERI3
 70
     0
  9
$USERI4
 70
     0
  9
$USERI5
 70
     0
  9
$USERR1
 40
0.0
  9
$USERR2
 40
0.0
  9
$USERR3
 40
0.0
  9
$USERR4
 40
0.0
  9
$USERR5
 40
0.0
  9
$WORLDVIEW
 70
     1
  9
$SHADEDGE
 70
     3
  9
$SHADEDIF
 70
    70
  9
$TILEMODE
 70
     1
  9
$MAXACTVP
 70
    64
  9
$PINSBASE
 10
0.0
 20
0.0
 30
0.0
  9
$PLIMCHECK
 70
     0
  9
$PEXTMIN
 10
1.000000000000000E+20
 20
1.000000000000000E+20
 30
1.000000000000000E+20
  9
$PEXTMAX
 10
-1.000000000000000E+20
 20
-1.000000000000000E+20
 30
-1.000000000000000E+20
  9
$PLIMMIN
 10
0.0
 20
0.0
  9
$PLIMMAX
 10
12.0
 20
9.0
  9
$UNITMODE
 70
     0
  9
$VISRETAIN
 70
     1
  9
$PLINEGEN
 70
     0
  9
$PSLTSCALE
 70
     1
  9
$TREEDEPTH
 70
  3020
  9
$CMLSTYLE
  2
Standard
  9
$CMLJUST
 70
     0
  9
$CMLSCALE
 40
1.0
  9
$PROXYGRAPHICS
 70
     1
  9
$MEASUREMENT
 70
     0
  9
$CELWEIGHT
370
    -1
  9
$ENDCAPS
280
     0
  9
$JOINSTYLE
280
     0
  9
$LWDISPLAY
290
     1
  9
$INSUNITS
 70
     1
  9
$HYPERLINKBASE
  1

  9
$STYLESHEET
  1

  9
$XEDIT
290
     1
  9
$CEPSNTYPE
380
     0
  9
$PSTYLEMODE
290
     1
  9
$FINGERPRINTGUID
  2
{4D03B241-A142-6B4E-BDF4-E7F2D486B75E}
  9
$VERSIONGUID
  2
{020FF349-89B0-634D-A9BE-DD4DF5232726}
  9
$EXTNAMES
290
     1
  9
$PSVPSCALE
 40
0.0
  9
$OLESTARTUP
290
     0
  9
$SORTENTS
280
   127
  9
$INDEXCTL
280
     0
  9
$HIDETEXT
280
     1
  9
$XCLIPFRAME
280
     2
  9
$HALOGAP
280
     0
  9
$OBSCOLOR
 70
   257
  9
$OBSLTYPE
280
     0
  9
$INTERSECTIONDISPLAY
280
     0
  9
$INTERSECTIONCOLOR
 70
   257
  9
$DIMASSOC
280
     2
  9
$PROJECTNAME
  1

  9
$CAMERADISPLAY
290
     0
  9
$LENSLENGTH
 40
50.0
  9
$CAMERAHEIGHT
 40
0.0
  9
$STEPSPERSEC
 40
2.0
  9
$STEPSIZE
 40
6.0
  9
$3DDWFPREC
 40
2.0
  9
$PSOLWIDTH
 40
0.25
  9
$PSOLHEIGHT
 40
4.0
  9
$LOFTANG1
 40
1.570796326794896
  9
$LOFTANG2
 40
1.570796326794896
  9
$LOFTMAG1
 40
0.0
  9
$LOFTMAG2
 40
0.0
  9
$LOFTPARAM
 70
     7
  9
$LOFTNORMALS
280
     1
  9
$LATITUDE
 40
37.795
  9
$LONGITUDE
 40
-122.394
  9
$NORTHDIRECTION
 40
0.0
  9
$TIMEZONE
 70
 -8000
  9
$LIGHTGLYPHDISPLAY
280
     1
  9
$TILEMODELIGHTSYNCH
280
     1
  9
$CMATERIAL
347
11
  9
$SOLIDHIST
280
     0
  9
$SHOWHIST
280
     1
  9
$DWFFRAME
280
     2
  9
$DGNFRAME
280
     0
  9
$REALWORLDSCALE
290
     1
  9
$INTERFERECOLOR
 62
     1
  9
$INTERFEREOBJVS
345
33
  9
$INTERFEREVPVS
346
30
  9
$CSHADOW
280
     0
  9
$SHADOWPLANELOCATION
 40
0.0
  0
ENDSEC
  0
SECTION
  2
CLASSES
  0
CLASS
  1
ACDBDICTIONARYWDFLT
  2
AcDbDictionaryWithDefault
  3
ObjectDBX Classes
 90
        0
 91
        1
280
     0
281
     0
  0
CLASS
  1
MATERIAL
  2
AcDbMaterial
  3
ObjectDBX Classes
 90
     1153
 91
        3
280
     0
281
     0
  0
CLASS
  1
VISUALSTYLE
  2
AcDbVisualStyle
  3
ObjectDBX Classes
 90
     4095
 91
       24
280
     0
281
     0
  0
CLASS
  1
SCALE
  2
AcDbScale
  3
ObjectDBX Classes
 90
     1153
 91
       17
280
     0
281
     0
  0
CLASS
  1
TABLESTYLE
  2
AcDbTableStyle
  3
ObjectDBX Classes
 90
     4095
 91
        1
280
     0
281
     0
  0
CLASS
  1
MLEADERSTYLE
  2
AcDbMLeaderStyle
  3
ACDB_MLEADERSTYLE_CLASS
 90
     4095
 91
        1
280
     0
281
     0
  0
CLASS
  1
ACDBSECTIONVIEWSTYLE
  2
AcDbSectionViewStyle
  3
ObjectDBX Classes
 90
     1025
 91
        1
280
     0
281
     0
  0
CLASS
  1
ACDBDETAILVIEWSTYLE
  2
AcDbDetailViewStyle
  3
ObjectDBX Classes
 90
     1025
 91
        1
280
     0
281
     0
  0
CLASS
  1
DICTIONARYVAR
  2
AcDbDictionaryVar
  3
ObjectDBX Classes
 90
        0
 91
        5
280
     0
281
     0
  0
CLASS
  1
CELLSTYLEMAP
  2
AcDbCellStyleMap
  3
ObjectDBX Classes
 90
     1152
 91
        1
280
     0
281
     0
  0
ENDSEC
  0
SECTION
  2
TABLES
  0
TABLE
  2
VPORT
  5
8
330
0
100
AcDbSymbolTable
 70
     1
  0
VPORT
  5
57
330
8
100
AcDbSymbolTableRecord
100
AcDbViewportTableRecord
  2
*Active
 70
     0
 10
0.0
 20
0.0
 11
1.0
 21
1.0
 12
0.0
 22
0.0
 13
0.0
 23
0.0
 14
1.0
 24
1.0
 15
0.0
 25
0.0
 16
0.0
 26
0.0
 36
1.0
 17
2.469916051687858
 27
-3.705190828665422
 37
0.0
 40
12.08133824575442
 41
0.7589134505325614
 42
50.0
 43
0.0
 44
0.0
 50
0.0
 51
0.0
 71
     0
 72
   100
 73
     1
 74
     1
 75
     0
 76
     0
 77
     0
 78
     0
281
     0
 65
     1
110
0.0
120
0.0
130
0.0
111
1.0
121
0.0
131
0.0
112
0.0
122
1.0
132
0.0
 79
     0
146
0.0
 60
     3
 61
     5
292
     1
282
     1
141
0.0
142
0.0
 63
   250
421
  3355443
  0
ENDTAB
  0
TABLE
  2
LTYPE
  5
5
330
0
100
AcDbSymbolTable
 70
     1
  0
LTYPE
  5
5B
330
5
100
AcDbSymbolTableRecord
100
AcDbLinetypeTableRecord
  2
ByBlock
 70
     0
  3

 72
    65
 73
     0
 40
0.0
  0
LTYPE
  5
5C
330
5
100
AcDbSymbolTableRecord
100
AcDbLinetypeTableRecord
  2
ByLayer
 70
     0
  3

 72
    65
 73
     0
 40
0.0
  0
LTYPE
  5
5D
330
5
100
AcDbSymbolTableRecord
100
AcDbLinetypeTableRecord
  2
Continuous
 70
     0
  3
Solid line
 72
    65
 73
     0
 40
0.0
  0
ENDTAB
  0
TABLE
  2
LAYER
  5
2
330
0
100
AcDbSymbolTable
 70
     3
  0
LAYER
  5
54
330
2
100
AcDbSymbolTableRecord
100
AcDbLayerTableRecord
  2
0
 70
     0
 62
     7
  6
Continuous
370
    -3
390
F
347
21
348
0
  0
LAYER
  5
78
330
2
100
AcDbSymbolTableRecord
100
AcDbLayerTableRecord
  2
Layer 2
 70
     0
 62
     7
  6
Continuous
370
     0
390
F
347
21
348
0
  0
LAYER
  5
79
330
2
100
AcDbSymbolTableRecord
100
AcDbLayerTableRecord
  2
Layer 1
 70
     0
 62
     7
  6
Continuous
370
     0
390
F
347
21
348
0
  0
ENDTAB
  0
TABLE
  2
STYLE
  5
3
330
0
100
AcDbSymbolTable
 70
     2
  0
STYLE
  5
55
330
3
100
AcDbSymbolTableRecord
100
AcDbTextStyleTableRecord
  2
Standard
 70
     0
 40
0.0
 41
1.0
 50
0.0
 71
     0
 42
0.2
  3
txt
  4

  0
STYLE
  5
5A
330
3
100
AcDbSymbolTableRecord
100
AcDbTextStyleTableRecord
  2
Annotative
 70
     0
 40
0.0
 41
1.0
 50
0.0
 71
     0
 42
0.2
  3
txt
  4

1001
AcadAnnotative
1000
AnnotativeData
1002
{
1070
     1
1070
     1
1002
}
  0
ENDTAB
  0
TABLE
  2
VIEW
  5
6
330
0
100
AcDbSymbolTable
 70
     0
  0
ENDTAB
  0
TABLE
  2
UCS
  5
7
330
0
100
AcDbSymbolTable
 70
     0
  0
ENDTAB
  0
TABLE
  2
APPID
  5
9
330
0
100
AcDbSymbolTable
 70
     2
  0
APPID
  5
56
330
9
100
AcDbSymbolTableRecord
100
AcDbRegAppTableRecord
  2
ACAD
 70
     0
  0
APPID
  5
5E
330
9
100
AcDbSymbolTableRecord
100
AcDbRegAppTableRecord
  2
AcadAnnotative
 70
     0
  0
ENDTAB
  0
TABLE
  2
DIMSTYLE
  5
A
330
0
100
AcDbSymbolTable
 70
     2
100
AcDbDimStyleTable
 71
     0
  0
DIMSTYLE
105
58
330
A
100
AcDbSymbolTableRecord
100
AcDbDimStyleTableRecord
  2
Standard
 70
     0
340
55
  0
DIMSTYLE
105
59
330
A
100
AcDbSymbolTableRecord
100
AcDbDimStyleTableRecord
  2
Annotative
 70
     0
340
55
1001
AcadAnnotative
1000
AnnotativeData
1002
{
1070
     1
1070
     1
1002
}
  0
ENDTAB
  0
TABLE
  2
BLOCK_RECORD
  5
1
330
0
100
AcDbSymbolTable
 70
     1
  0
BLOCK_RECORD
  5
70
330
1
100
AcDbSymbolTableRecord
100
AcDbBlockTableRecord
  2
*Model_Space
340
73
 70
     0
280
     1
281
     0
  0
BLOCK_RECORD
  5
6C
330
1
100
AcDbSymbolTableRecord
100
AcDbBlockTableRecord
  2
*Paper_Space
340
6F
 70
     0
280
     1
281
     0
  0
BLOCK_RECORD
  5
74
330
1
100
AcDbSymbolTableRecord
100
AcDbBlockTableRecord
  2
*Paper_Space0
340
77
 70
     0
280
     1
281
     0
  0
ENDTAB
  0
ENDSEC
  0
SECTION
  2
BLOCKS
  0
BLOCK
  5
71
330
70
100
AcDbEntity
  8
0
100
AcDbBlockBegin
  2
*Model_Space
 70
     0
 10
0.0
 20
0.0
 30
0.0
  3
*Model_Space
  1

  0
ENDBLK
  5
72
330
70
100
AcDbEntity
  8
0
100
AcDbBlockEnd
  0
BLOCK
  5
6D
330
6C
100
AcDbEntity
 67
     1
  8
0
100
AcDbBlockBegin
  2
*Paper_Space
 70
     0
 10
0.0
 20
0.0
 30
0.0
  3
*Paper_Space
  1

  0
ENDBLK
  5
6E
330
6C
100
AcDbEntity
 67
     1
  8
0
100
AcDbBlockEnd
  0
BLOCK
  5
75
330
74
100
AcDbEntity
 67
     1
  8
0
100
AcDbBlockBegin
  2
*Paper_Space0
 70
     0
 10
0.0
 20
0.0
 30
0.0
  3
*Paper_Space0
  1

  0
ENDBLK
  5
76
330
74
100
AcDbEntity
 67
     1
  8
0
100
AcDbBlockEnd
  0
ENDSEC
  0
SECTION
  2
ENTITIES
  0
SPLINE
  5
7A
330
70
100
AcDbEntity
  8
Layer 1
 62
    18
420
    65793
370
    18
100
AcDbSpline
210
0.0
220
0.0
230
1.0
 70
     9
 71
     3
 72
    29
 73
    25
 74
     0
 42
0.0000000001
 43
0.0000000001
 40
0.0
 40
0.0
 40
0.0
 40
0.0
 40
1.0
 40
1.0
 40
1.0
 40
2.0
 40
2.0
 40
2.0
 40
3.0
 40
3.0
 40
3.0
 40
4.0
 40
4.0
 40
4.0
 40
5.0
 40
5.0
 40
5.0
 40
6.0
 40
6.0
 40
6.0
 40
7.0
 40
7.0
 40
7.0
 40
8.0
 40
8.0
 40
8.0
 40
8.0
 10
4.09653971299066
 20
-8.019260257646944
 30
0.0
 10
4.09653971299066
 20
-8.019260257646944
 30
0.0
 10
4.09653971299066
 20
-8.206518051841158
 30
0.0
 10
4.09653971299066
 20
-8.206518051841158
 30
0.0
 10
4.09653971299066
 20
-8.206518051841158
 30
0.0
 10
4.00279001753923
 20
-8.206518051841158
 30
0.0
 10
4.00279001753923
 20
-8.206518051841158
 30
0.0
 10
4.00279001753923
 20
-8.206518051841158
 30
0.0
 10
4.00279001753923
 20
-8.019318749481701
 30
0.0
 10
4.00279001753923
 20
-8.019318749481701
 30
0.0
 10
3.392095844577094
 20
-8.032974685548044
 30
0.0
 10
2.925243265702116
 20
-8.30020544077297
 30
0.0
 10
2.925243265702116
 20
-8.30020544077297
 30
0.0
 10
2.925243265702116
 20
-8.30020544077297
 30
0.0
 10
2.925243265702116
 20
-8.393730069816886
 30
0.0
 10
2.925243265702116
 20
-8.393730069816886
 30
0.0
 10
2.925243265702116
 20
-8.393730069816886
 30
0.0
 10
5.175235956536324
 20
-8.393730069816886
 30
0.0
 10
5.175235956536324
 20
-8.393730069816886
 30
0.0
 10
5.175235956536324
 20
-8.393730069816886
 30
0.0
 10
5.175235956536324
 20
-8.30020544077297
 30
0.0
 10
5.175235956536324
 20
-8.30020544077297
 30
0.0
 10
5.175235956536324
 20
-8.30020544077297
 30
0.0
 10
4.708546137549268
 20
-8.032150077834558
 30
0.0
 10
4.09653971299066
 20
-8.019260257646944
 30
0.0
  0
SPLINE
  5
7B
330
70
100
AcDbEntity
  8
Layer 1
 62
    18
420
    65793
370
    18
100
AcDbSpline
210
0.0
220
0.0
230
1.0
 70
     9
 71
     3
 72
   137
 73
   133
 74
     0
 42
0.0000000001
 43
0.0000000001
 40
0.0
 40
0.0
 40
0.0
 40
0.0
 40
1.0
 40
1.0
 40
1.0
 40
2.0
 40
2.0
 40
2.0
 40
3.0
 40
3.0
 40
3.0
 40
4.0
 40
4.0
 40
4.0
 40
5.0
 40
5.0
 40
5.0
 40
6.0
 40
6.0
 40
6.0
 40
7.0
 40
7.0
 40
7.0
 40
8.0
 40
8.0
 40
8.0
 40
9.0
 40
9.0
 40
9.0
 40
10.0
 40
10.0
 40
10.0
 40
11.0
 40
11.0
 40
11.0
 40
12.0
 40
12.0
 40
12.0
 40
13.0
 40
13.0
 40
13.0
 40
14.0
 40
14.0
 40
14.0
 40
15.0
 40
15.0
 40
15.0
 40
16.0
 40
16.0
 40
16.0
 40
17.0
 40
17.0
 40
17.0
 40
18.0
 40
18.0
 40
18.0
 40
19.0
 40
19.0
 40
19.0
 40
20.0
 40
20.0
 40
20.0
 40
21.0
 40
21.0
 40
21.0
 40
22.0
 40
22.0
 40
22.0
 40
23.0
 40
23.0
 40
23.0
 40
24.0
 40
24.0
 40
24.0
 40
25.0
 40
25.0
 40
25.0
 40
26.0
 40
26.0
 40
26.0
 40
27.0
 40
27.0
 40
27.0
 40
28.0
 40
28.0
 40
28.0
 40
29.0
 40
29.0
 40
29.0
 40
30.0
 40
30.0
 40
30.0
 40
31.0
 40
31.0
 40
31.0
 40
32.0
 40
32.0
 40
32.0
 40
33.0
 40
33.0
 40
33.0
 40
34.0
 40
34.0
 40
34.0
 40
35.0
 40
35.0
 40
35.0
 40
36.0
 40
36.0
 40
36.0
 40
37.0
 40
37.0
 40
37.0
 40
38.0
 40
38.0
 40
38.0
 40
39.0
 40
39.0
 40
39.0
 40
40.0
 40
40.0
 40
40.0
 40
41.0
 40
41.0
 40
41.0
 40
42.0
 40
42.0
 40
42.0
 40
43.0
 40
43.0
 40
43.0
 40
44.0
 40
44.0
 40
44.0
 40
44.0
 10
5.995075825240746
 20
-9.095503358137142
 30
0.0
 10
5.995075825240746
 20
-9.095503358137142
 30
0.0
 10
5.995075825240746
 20
-8.70332514300359
 30
0.0
 10
5.995075825240746
 20
-8.70332514300359
 30
0.0
 10
5.995075825240746
 20
-8.70332514300359
 30
0.0
 10
5.971183182316305
 20
-8.70332514300359
 30
0.0
 10
5.971183182316305
 20
-8.70332514300359
 30
0.0
 10
5.971183182316305
 20
-8.70332514300359
 30
0.0
 10
5.971183182316305
 20
-8.047029591282655
 30
0.0
 10
5.971183182316305
 20
-8.047029591282655
 30
0.0
 10
5.971183182316305
 20
-8.047029591282655
 30
0.0
 10
5.948368823649464
 20
-8.047029591282655
 30
0.0
 10
5.948368823649464
 20
-8.047029591282655
 30
0.0
 10
5.948368823649464
 20
-8.047029591282655
 30
0.0
 10
5.948368823649464
 20
-7.390781723122674
 30
0.0
 10
5.948368823649464
 20
-7.390781723122674
 30
0.0
 10
5.948368823649464
 20
-7.390781723122674
 30
0.0
 10
5.924788984884647
 20
-7.390781723122674
 30
0.0
 10
5.924788984884647
 20
-7.390781723122674
 30
0.0
 10
5.924788984884647
 20
-7.390781723122674
 30
0.0
 10
5.924788984884647
 20
-6.734533854962692
 30
0.0
 10
5.924788984884647
 20
-6.734533854962692
 30
0.0
 10
5.924788984884647
 20
-6.734533854962692
 30
0.0
 10
5.901206602996605
 20
-6.734533854962692
 30
0.0
 10
5.901206602996605
 20
-6.734533854962692
 30
0.0
 10
5.901206602996605
 20
-6.734533854962692
 30
0.0
 10
5.901206602996605
 20
-6.078285986802711
 30
0.0
 10
5.901206602996605
 20
-6.078285986802711
 30
0.0
 10
5.901206602996605
 20
-6.078285986802711
 30
0.0
 10
5.877625492670176
 20
-6.078285986802711
 30
0.0
 10
5.877625492670176
 20
-6.078285986802711
 30
0.0
 10
5.877625492670176
 20
-6.078285986802711
 30
0.0
 10
5.877625492670176
 20
-5.422246654749149
 30
0.0
 10
5.877625492670176
 20
-5.422246654749149
 30
0.0
 10
5.877625492670176
 20
-5.422246654749149
 30
0.0
 10
5.854044382343746
 20
-5.422246654749149
 30
0.0
 10
5.854044382343746
 20
-5.422246654749149
 30
0.0
 10
5.854044382343746
 20
-5.422246654749149
 30
0.0
 10
5.854044382343746
 20
-4.765998786589167
 30
0.0
 10
5.854044382343746
 20
-4.765998786589167
 30
0.0
 10
5.854044382343746
 20
-4.765998786589167
 30
0.0
 10
5.830703597164352
 20
-4.765998786589167
 30
0.0
 10
5.830703597164352
 20
-4.765998786589167
 30
0.0
 10
5.830703597164352
 20
-4.765998786589167
 30
0.0
 10
5.830703597164352
 20
-4.110239198093002
 30
0.0
 10
5.830703597164352
 20
-4.110239198093002
 30
0.0
 10
5.830703597164352
 20
-4.110239198093002
 30
0.0
 10
5.807576434337887
 20
-4.110239198093002
 30
0.0
 10
5.807576434337887
 20
-4.110239198093002
 30
0.0
 10
5.807576434337887
 20
-4.110239198093002
 30
0.0
 10
5.807576434337887
 20
-3.078667664132252
 30
0.0
 10
5.807576434337887
 20
-3.078667664132252
 30
0.0
 10
5.807576434337887
 20
-3.078667664132252
 30
0.0
 10
5.620077043435028
 20
-3.078667664132252
 30
0.0
 10
5.620077043435028
 20
-3.078667664132252
 30
0.0
 10
5.620077043435028
 20
-3.078667664132252
 30
0.0
 10
5.620077043435028
 20
-4.110239198093002
 30
0.0
 10
5.620077043435028
 20
-4.110239198093002
 30
0.0
 10
5.620077043435028
 20
-4.110239198093002
 30
0.0
 10
5.596952423731813
 20
-4.110239198093002
 30
0.0
 10
5.596952423731813
 20
-4.110239198093002
 30
0.0
 10
5.596952423731813
 20
-4.110239198093002
 30
0.0
 10
5.596952423731813
 20
-4.765998786589167
 30
0.0
 10
5.596952423731813
 20
-4.765998786589167
 30
0.0
 10
5.596952423731813
 20
-4.765998786589167
 30
0.0
 10
5.57361036699078
 20
-4.765998786589167
 30
0.0
 10
5.57361036699078
 20
-4.765998786589167
 30
0.0
 10
5.57361036699078
 20
-4.765998786589167
 30
0.0
 10
5.57361036699078
 20
-5.422246654749149
 30
0.0
 10
5.57361036699078
 20
-5.422246654749149
 30
0.0
 10
5.57361036699078
 20
-5.422246654749149
 30
0.0
 10
5.550029256664351
 20
-5.422246654749149
 30
0.0
 10
5.550029256664351
 20
-5.422246654749149
 30
0.0
 10
5.550029256664351
 20
-5.422246654749149
 30
0.0
 10
5.550029256664351
 20
-6.078285986802711
 30
0.0
 10
5.550029256664351
 20
-6.078285986802711
 30
0.0
 10
5.550029256664351
 20
-6.078285986802711
 30
0.0
 10
5.526448146337947
 20
-6.078285986802711
 30
0.0
 10
5.526448146337947
 20
-6.078285986802711
 30
0.0
 10
5.526448146337947
 20
-6.078285986802711
 30
0.0
 10
5.526448146337947
 20
-6.734533854962692
 30
0.0
 10
5.526448146337947
 20
-6.734533854962692
 30
0.0
 10
5.526448146337947
 20
-6.734533854962692
 30
0.0
 10
5.502867036011517
 20
-6.734533854962692
 30
0.0
 10
5.502867036011517
 20
-6.734533854962692
 30
0.0
 10
5.502867036011517
 20
-6.734533854962692
 30
0.0
 10
5.502867036011517
 20
-7.390781723122674
 30
0.0
 10
5.502867036011517
 20
-7.390781723122674
 30
0.0
 10
5.502867036011517
 20
-7.390781723122674
 30
0.0
 10
5.479284654123451
 20
-7.390781723122674
 30
0.0
 10
5.479284654123451
 20
-7.390781723122674
 30
0.0
 10
5.479284654123451
 20
-7.390781723122674
 30
0.0
 10
5.479284654123451
 20
-8.047029591282655
 30
0.0
 10
5.479284654123451
 20
-8.047029591282655
 30
0.0
 10
5.479284654123451
 20
-8.047029591282655
 30
0.0
 10
5.456470295456609
 20
-8.047029591282655
 30
0.0
 10
5.456470295456609
 20
-8.047029591282655
 30
0.0
 10
5.456470295456609
 20
-8.047029591282655
 30
0.0
 10
5.456470295456609
 20
-8.70332514300359
 30
0.0
 10
5.456470295456609
 20
-8.70332514300359
 30
0.0
 10
5.456470295456609
 20
-8.70332514300359
 30
0.0
 10
5.432577652532168
 20
-8.70332514300359
 30
0.0
 10
5.432577652532168
 20
-8.70332514300359
 30
0.0
 10
5.432577652532168
 20
-8.70332514300359
 30
0.0
 10
5.432577652532168
 20
-9.095713801585992
 30
0.0
 10
5.432577652532168
 20
-9.095713801585992
 30
0.0
 10
4.940498562588648
 20
-9.157849296148166
 30
0.0
 10
4.588902872481942
 20
-9.359127328814135
 30
0.0
 10
4.588902872481942
 20
-9.359127328814135
 30
0.0
 10
4.588902872481942
 20
-9.359127328814135
 30
0.0
 10
4.588902872481942
 20
-9.452651957858051
 30
0.0
 10
4.588902872481942
 20
-9.452651957858051
 30
0.0
 10
4.588902872481942
 20
-9.452651957858051
 30
0.0
 10
5.666449624319056
 20
-9.452651957858051
 30
0.0
 10
5.666449624319056
 20
-9.452651957858051
 30
0.0
 10
5.666449624319056
 20
-9.452651957858051
 30
0.0
 10
5.666449624319056
 20
-9.265439939882323
 30
0.0
 10
5.666449624319056
 20
-9.265439939882323
 30
0.0
 10
5.666449624319056
 20
-9.265439939882323
 30
0.0
 10
5.760199319770486
 20
-9.265439939882323
 30
0.0
 10
5.760199319770486
 20
-9.265439939882323
 30
0.0
 10
5.760199319770486
 20
-9.265439939882323
 30
0.0
 10
5.760199319770486
 20
-9.452651957858051
 30
0.0
 10
5.760199319770486
 20
-9.452651957858051
 30
0.0
 10
5.760199319770486
 20
-9.452651957858051
 30
0.0
 10
6.838895563316175
 20
-9.452651957858051
 30
0.0
 10
6.838895563316175
 20
-9.452651957858051
 30
0.0
 10
6.838895563316175
 20
-9.452651957858051
 30
0.0
 10
6.838895563316175
 20
-9.359127328814135
 30
0.0
 10
6.838895563316175
 20
-9.359127328814135
 30
0.0
 10
6.838895563316175
 20
-9.359127328814135
 30
0.0
 10
6.48768388482007
 20
-9.157385176155255
 30
0.0
 10
5.995075825240746
 20
-9.095503358137142
 30
0.0
  0
SPLINE
  5
7C
330
70
100
AcDbEntity
  8
Layer 1
 62
    18
420
    65793
370
    18
100
AcDbSpline
210
0.0
220
0.0
230
1.0
 70
    11
 71
     3
 72
    38
 73
    34
 74
     0
 42
0.0000000001
 43
0.0000000001
 40
0.0
 40
0.0
 40
0.0
 40
0.0
 40
1.0
 40
1.0
 40
1.0
 40
2.0
 40
2.0
 40
2.0
 40
3.0
 40
3.0
 40
3.0
 40
4.0
 40
4.0
 40
4.0
 40
5.0
 40
5.0
 40
5.0
 40
6.0
 40
6.0
 40
6.0
 40
7.0
 40
7.0
 40
7.0
 40
8.0
 40
8.0
 40
8.0
 40
9.0
 40
9.0
 40
9.0
 40
10.0
 40
10.0
 40
10.0
 40
11.0
 40
11.0
 40
11.0
 40
11.0
 10
2.131343161451241
 20
1.971386864144
 30
0.0
 10
2.131343161451241
 20
1.971386864144
 30
0.0
 10
1.53369012451003
 20
1.118226234374964
 30
0.0
 10
1.53369012451003
 20
1.118226234374964
 30
0.0
 10
1.53369012451003
 20
1.118226234374964
 30
0.0
 10
0.5375983387770021
 20
0.8134647020219871
 30
0.0
 10
0.5375983387770021
 20
0.8134647020219871
 30
0.0
 10
0.5375983387770021
 20
0.8134647020219871
 30
0.0
 10
1.164319274454378
 20
-0.0185771965064987
 30
0.0
 10
1.164319274454378
 20
-0.0185771965064987
 30
0.0
 10
1.164319274454378
 20
-0.0185771965064987
 30
0.0
 10
1.146354651823382
 20
-1.060090117138025
 30
0.0
 10
1.146354651823382
 20
-1.060090117138025
 30
0.0
 10
1.146354651823382
 20
-1.060090117138025
 30
0.0
 10
2.131343161451241
 20
-0.7211626776058388
 30
0.0
 10
2.131343161451241
 20
-0.7211626776058388
 30
0.0
 10
2.131343161451241
 20
-0.7211626776058388
 30
0.0
 10
3.116331750551681
 20
-1.060090117138025
 30
0.0
 10
3.116331750551681
 20
-1.060090117138025
 30
0.0
 10
3.116331750551681
 20
-1.060090117138025
 30
0.0
 10
3.098368240537133
 20
-0.0185771965064987
 30
0.0
 10
3.098368240537133
 20
-0.0185771965064987
 30
0.0
 10
3.098368240537133
 20
-0.0185771965064987
 30
0.0
 10
3.725087984125467
 20
0.8134647020219871
 30
0.0
 10
3.725087984125467
 20
0.8134647020219871
 30
0.0
 10
3.725087984125467
 20
0.8134647020219871
 30
0.0
 10
2.72899667522808
 20
1.118226234374964
 30
0.0
 10
2.72899667522808
 20
1.118226234374964
 30
0.0
 10
2.72899667522808
 20
1.118226234374964
 30
0.0
 10
2.131343161451241
 20
1.971386864144
 30
0.0
 10
2.131343161451241
 20
1.971386864144
 30
0.0
 10
2.131343161451241
 20
1.971386864144
 30
0.0
 10
2.131343161451241
 20
1.971386864144
 30
0.0
 10
2.131343161451241
 20
1.971386864144
 30
0.0
  0
LWPOLYLINE
  5
7D
330
70
100
AcDbEntity
  8
Layer 1
100
AcDbPolyline
 90
        4
 70
     1
 43
0.0
 10
2.38869942935883
 20
0.2674779725099875
 10
1.873986893543625
 20
0.2674779725099875
 10
1.873986893543625
 20
0.361227667961417
 10
2.38869942935883
 20
0.361227667961417
  0
HATCH
  5
7E
330
70
100
AcDbEntity
  8
Layer 1
 62
   143
420
  8370141
440
 33554483
100
AcDbHatch
 10
0.0
 20
0.0
 30
0.0
210
0.0
220
0.0
230
1.0
  2
SOLID
 70
     1
 71
     1
 91
        1
 92
        1
 93
        4
 72
     1
 10
2.38869942935883
 20
0.2674779725099875
 11
1.873986893543625
 21
0.2674779725099875
 72
     1
 10
1.873986893543625
 20
0.2674779725099875
 11
1.873986893543625
 21
0.361227667961417
 72
     1
 10
1.873986893543625
 20
0.361227667961417
 11
2.38869942935883
 21
0.361227667961417
 72
     1
 10
2.38869942935883
 20
0.361227667961417
 11
2.38869942935883
 21
0.2674779725099875
 97
        1
330
7D
 75
     0
 76
     1
 98
        1
 10
0.0
 20
0.0
450
        0
451
        0
460
0.0
461
0.0
452
        0
462
0.0
453
        0
470

  0
SPLINE
  5
7F
330
70
100
AcDbEntity
  8
Layer 1
 62
    18
420
    65793
370
    18
100
AcDbSpline
210
0.0
220
0.0
230
1.0
 70
    11
 71
     3
 72
    65
 73
    61
 74
     0
 42
0.0000000001
 43
0.0000000001
 40
0.0
 40
0.0
 40
0.0
 40
0.0
 40
1.0
 40
1.0
 40
1.0
 40
2.0
 40
2.0
 40
2.0
 40
3.0
 40
3.0
 40
3.0
 40
4.0
 40
4.0
 40
4.0
 40
5.0
 40
5.0
 40
5.0
 40
6.0
 40
6.0
 40
6.0
 40
7.0
 40
7.0
 40
7.0
 40
8.0
 40
8.0
 40
8.0
 40
9.0
 40
9.0
 40
9.0
 40
10.0
 40
10.0
 40
10.0
 40
11.0
 40
11.0
 40
11.0
 40
12.0
 40
12.0
 40
12.0
 40
13.0
 40
13.0
 40
13.0
 40
14.0
 40
14.0
 40
14.0
 40
15.0
 40
15.0
 40
15.0
 40
16.0
 40
16.0
 40
16.0
 40
17.0
 40
17.0
 40
17.0
 40
18.0
 40
18.0
 40
18.0
 40
19.0
 40
19.0
 40
19.0
 40
20.0
 40
20.0
 40
20.0
 40
20.0
 10
-0.482745075306765
 20
0.942033804998535
 30
0.0
 10
-0.482745075306765
 20
0.942033804998535
 30
0.0
 10
0.0466556198775834
 20
0.1863046773646728
 30
0.0
 10
0.0466556198775834
 20
0.1863046773646728
 30
0.0
 10
0.0466556198775834
 20
0.1863046773646728
 30
0.0
 10
0.0631077199562166
 20
0.1628189341600874
 30
0.0
 10
0.0631077199562166
 20
0.1628189341600874
 30
0.0
 10
0.0631077199562166
 20
0.1628189341600874
 30
0.0
 10
0.0905276748270201
 20
0.1544298063424271
 30
0.0
 10
0.0905276748270201
 20
0.1544298063424271
 30
0.0
 10
0.0905276748270201
 20
0.1544298063424271
 30
0.0
 10
0.9728646039607156
 20
-0.1155271770054469
 30
0.0
 10
0.9728646039607156
 20
-0.1155271770054469
 30
0.0
 10
0.9728646039607156
 20
-0.1155271770054469
 30
0.0
 10
0.4177164548047914
 20
-0.8525497258004103
 30
0.0
 10
0.4177164548047914
 20
-0.8525497258004103
 30
0.0
 10
0.4177164548047914
 20
-0.8525497258004103
 30
0.0
 10
0.4004646219369382
 20
-0.8754537295617788
 30
0.0
 10
0.4004646219369382
 20
-0.8754537295617788
 30
0.0
 10
0.4004646219369382
 20
-0.8754537295617788
 30
0.0
 10
0.4009589415184615
 20
-0.9041242652902813
 30
0.0
 10
0.4009589415184615
 20
-0.9041242652902813
 30
0.0
 10
0.4009589415184615
 20
-0.9041242652902813
 30
0.0
 10
0.416871025269706
 20
-1.826695947346517
 30
0.0
 10
0.416871025269706
 20
-1.826695947346517
 30
0.0
 10
0.416871025269706
 20
-1.826695947346517
 30
0.0
 10
-0.4556310899518571
 20
-1.52647357210262
 30
0.0
 10
-0.4556310899518571
 20
-1.52647357210262
 30
0.0
 10
-0.4556310899518571
 20
-1.52647357210262
 30
0.0
 10
-0.482745075306765
 20
-1.517143488682816
 30
0.0
 10
-0.482745075306765
 20
-1.517143488682816
 30
0.0
 10
-0.482745075306765
 20
-1.517143488682816
 30
0.0
 10
-0.5098590606616729
 20
-1.52647357210262
 30
0.0
 10
-0.5098590606616729
 20
-1.52647357210262
 30
0.0
 10
-0.5098590606616729
 20
-1.52647357210262
 30
0.0
 10
-1.382360937465427
 20
-1.826695947346517
 30
0.0
 10
-1.382360937465427
 20
-1.826695947346517
 30
0.0
 10
-1.382360937465427
 20
-1.826695947346517
 30
0.0
 10
-1.366448297405983
 20
-0.9041242652902813
 30
0.0
 10
-1.366448297405983
 20
-0.9041242652902813
 30
0.0
 10
-1.366448297405983
 20
-0.9041242652902813
 30
0.0
 10
-1.365953977824448
 20
-0.8754537295617788
 30
0.0
 10
-1.365953977824448
 20
-0.8754537295617788
 30
0.0
 10
-1.365953977824448
 20
-0.8754537295617788
 30
0.0
 10
-1.383205572274505
 20
-0.8525490900195917
 30
0.0
 10
-1.383205572274505
 20
-0.8525490900195917
 30
0.0
 10
-1.383205572274505
 20
-0.8525490900195917
 30
0.0
 10
-1.938354436683829
 20
-0.1155271770054469
 30
0.0
 10
-1.938354436683829
 20
-0.1155271770054469
 30
0.0
 10
-1.938354436683829
 20
-0.1155271770054469
 30
0.0
 10
-1.056017507550147
 20
0.1544298063424271
 30
0.0
 10
-1.056017507550147
 20
0.1544298063424271
 30
0.0
 10
-1.056017507550147
 20
0.1544298063424271
 30
0.0
 10
-1.028597552679343
 20
0.1628189341600874
 30
0.0
 10
-1.028597552679343
 20
0.1628189341600874
 30
0.0
 10
-1.028597552679343
 20
0.1628189341600874
 30
0.0
 10
-1.012145293655496
 20
0.1863046773646728
 30
0.0
 10
-1.012145293655496
 20
0.1863046773646728
 30
0.0
 10
-1.012145293655496
 20
0.1863046773646728
 30
0.0
 10
-0.482745075306765
 20
0.942033804998535
 30
0.0
 10
-0.482745075306765
 20
0.942033804998535
 30
0.0
  0
LWPOLYLINE
  5
80
330
70
100
AcDbEntity
  8
Layer 1
100
AcDbPolyline
 90
        4
 70
     1
 43
0.0
 10
-0.2482029915188883
 20
-0.6166315958572947
 10
-0.7172868412042641
 20
-0.6166315958572947
 10
-0.7172868412042641
 20
-0.5228819004058652
 10
-0.2482029915188883
 20
-0.5228819004058652
  0
HATCH
  5
81
330
70
100
AcDbEntity
  8
Layer 1
 62
   143
420
  8370141
440
 33554483
100
AcDbHatch
 10
0.0
 20
0.0
 30
0.0
210
0.0
220
0.0
230
1.0
  2
SOLID
 70
     1
 71
     1
 91
        1
 92
        1
 93
        4
 72
     1
 10
-0.2482029915188883
 20
-0.6166315958572947
 11
-0.7172868412042641
 21
-0.6166315958572947
 72
     1
 10
-0.7172868412042641
 20
-0.6166315958572947
 11
-0.7172868412042641
 21
-0.5228819004058652
 72
     1
 10
-0.7172868412042641
 20
-0.5228819004058652
 11
-0.2482029915188883
 21
-0.5228819004058652
 72
     1
 10
-0.2482029915188883
 20
-0.5228819004058652
 11
-0.2482029915188883
 21
-0.6166315958572947
 97
        1
330
80
 75
     0
 76
     1
 98
        1
 10
0.0
 20
0.0
450
        0
451
        0
460
0.0
461
0.0
452
        0
462
0.0
453
        0
470

  0
SPLINE
  5
82
330
70
100
AcDbEntity
  8
Layer 1
 62
    18
420
    65793
370
    18
100
AcDbSpline
210
0.0
220
0.0
230
1.0
 70
    11
 71
     3
 72
    65
 73
    61
 74
     0
 42
0.0000000001
 43
0.0000000001
 40
0.0
 40
0.0
 40
0.0
 40
0.0
 40
1.0
 40
1.0
 40
1.0
 40
2.0
 40
2.0
 40
2.0
 40
3.0
 40
3.0
 40
3.0
 40
4.0
 40
4.0
 40
4.0
 40
5.0
 40
5.0
 40
5.0
 40
6.0
 40
6.0
 40
6.0
 40
7.0
 40
7.0
 40
7.0
 40
8.0
 40
8.0
 40
8.0
 40
9.0
 40
9.0
 40
9.0
 40
10.0
 40
10.0
 40
10.0
 40
11.0
 40
11.0
 40
11.0
 40
12.0
 40
12.0
 40
12.0
 40
13.0
 40
13.0
 40
13.0
 40
14.0
 40
14.0
 40
14.0
 40
15.0
 40
15.0
 40
15.0
 40
16.0
 40
16.0
 40
16.0
 40
17.0
 40
17.0
 40
17.0
 40
18.0
 40
18.0
 40
18.0
 40
19.0
 40
19.0
 40
19.0
 40
20.0
 40
20.0
 40
20.0
 40
20.0
 10
-0.4827450753067524
 20
-4.088302415370927
 30
0.0
 10
-0.4827450753067524
 20
-4.088302415370927
 30
0.0
 10
-0.0215970397696816
 20
-4.746598769307979
 30
0.0
 10
-0.0215970397696816
 20
-4.746598769307979
 30
0.0
 10
-0.0215970397696816
 20
-4.746598769307979
 30
0.0
 10
0.0113070014424087
 20
-4.793569619936343
 30
0.0
 10
0.0113070014424087
 20
-4.793569619936343
 30
0.0
 10
0.0113070014424087
 20
-4.793569619936343
 30
0.0
 10
0.0661464343483987
 20
-4.810347875571689
 30
0.0
 10
0.0661464343483987
 20
-4.810347875571689
 30
0.0
 10
0.0661464343483987
 20
-4.810347875571689
 30
0.0
 10
0.8347294605539193
 20
-5.04550221725689
 30
0.0
 10
0.8347294605539193
 20
-5.04550221725689
 30
0.0
 10
0.8347294605539193
 20
-5.04550221725689
 30
0.0
 10
0.3511537800290574
 20
-5.687503508975926
 30
0.0
 10
0.3511537800290574
 20
-5.687503508975926
 30
0.0
 10
0.3511537800290574
 20
-5.687503508975926
 30
0.0
 10
0.316649716930341
 20
-5.733311516498663
 30
0.0
 10
0.316649716930341
 20
-5.733311516498663
 30
0.0
 10
0.316649716930341
 20
-5.733311516498663
 30
0.0
 10
0.3176387534564103
 20
-5.790651952174862
 30
0.0
 10
0.3176387534564103
 20
-5.790651952174862
 30
0.0
 10
0.3176387534564103
 20
-5.790651952174862
 30
0.0
 10
0.3314994109443129
 20
-6.594282713546211
 30
0.0
 10
0.3314994109443129
 20
-6.594282713546211
 30
0.0
 10
0.3314994109443129
 20
-6.594282713546211
 30
0.0
 10
-0.4285171045969366
 20
-6.332766356261799
 30
0.0
 10
-0.4285171045969366
 20
-6.332766356261799
 30
0.0
 10
-0.4285171045969366
 20
-6.332766356261799
 30
0.0
 10
-0.4827450753067524
 20
-6.314107460983854
 30
0.0
 10
-0.4827450753067524
 20
-6.314107460983854
 30
0.0
 10
-0.4827450753067524
 20
-6.314107460983854
 30
0.0
 10
-0.5369730460165683
 20
-6.332766356261799
 30
0.0
 10
-0.5369730460165683
 20
-6.332766356261799
 30
0.0
 10
-0.5369730460165683
 20
-6.332766356261799
 30
0.0
 10
-1.296989243667439
 20
-6.594282713546211
 30
0.0
 10
-1.296989243667439
 20
-6.594282713546211
 30
0.0
 10
-1.296989243667439
 20
-6.594282713546211
 30
0.0
 10
-1.283127950398718
 20
-5.790652587955668
 30
0.0
 10
-1.283127950398718
 20
-5.790652587955668
 30
0.0
 10
-1.283127950398718
 20
-5.790652587955668
 30
0.0
 10
-1.282138675454866
 20
-5.733311516498663
 30
0.0
 10
-1.282138675454866
 20
-5.733311516498663
 30
0.0
 10
-1.282138675454866
 20
-5.733311516498663
 30
0.0
 10
-1.316642818026176
 20
-5.687503508975926
 30
0.0
 10
-1.316642818026176
 20
-5.687503508975926
 30
0.0
 10
-1.316642818026176
 20
-5.687503508975926
 30
0.0
 10
-1.800219293277058
 20
-5.04550221725689
 30
0.0
 10
-1.800219293277058
 20
-5.04550221725689
 30
0.0
 10
-1.800219293277058
 20
-5.04550221725689
 30
0.0
 10
-1.031636584961903
 20
-4.810347875571689
 30
0.0
 10
-1.031636584961903
 20
-4.810347875571689
 30
0.0
 10
-1.031636584961903
 20
-4.810347875571689
 30
0.0
 10
-0.9767971520559006
 20
-4.793569619936343
 30
0.0
 10
-0.9767971520559006
 20
-4.793569619936343
 30
0.0
 10
-0.9767971520559006
 20
-4.793569619936343
 30
0.0
 10
-0.9438931108438231
 20
-4.746598769307979
 30
0.0
 10
-0.9438931108438231
 20
-4.746598769307979
 30
0.0
 10
-0.9438931108438231
 20
-4.746598769307979
 30
0.0
 10
-0.4827450753067524
 20
-4.088302415370927
 30
0.0
 10
-0.4827450753067524
 20
-4.088302415370927
 30
0.0
  0
LWPOLYLINE
  5
83
330
70
100
AcDbEntity
  8
Layer 1
100
AcDbPolyline
 90
        4
 70
     1
 43
0.0
 10
-0.2717842032581832
 20
-5.501723053886999
 10
-0.6937056294649563
 20
-5.501723053886999
 10
-0.6937056294649563
 20
-5.40797335843557
 10
-0.2717842032581832
 20
-5.40797335843557
  0
HATCH
  5
84
330
70
100
AcDbEntity
  8
Layer 1
 62
   143
420
  8370141
440
 33554483
100
AcDbHatch
 10
0.0
 20
0.0
 30
0.0
210
0.0
220
0.0
230
1.0
  2
SOLID
 70
     1
 71
     1
 91
        1
 92
        1
 93
        4
 72
     1
 10
-0.2717842032581832
 20
-5.501723053886999
 11
-0.6937056294649563
 21
-5.501723053886999
 72
     1
 10
-0.6937056294649563
 20
-5.501723053886999
 11
-0.6937056294649563
 21
-5.40797335843557
 72
     1
 10
-0.6937056294649563
 20
-5.40797335843557
 11
-0.2717842032581832
 21
-5.40797335843557
 72
     1
 10
-0.2717842032581832
 20
-5.40797335843557
 11
-0.2717842032581832
 21
-5.501723053886999
 97
        1
330
83
 75
     0
 76
     1
 98
        1
 10
0.0
 20
0.0
450
        0
451
        0
460
0.0
461
0.0
452
        0
462
0.0
453
        0
470

  0
SPLINE
  5
85
330
70
100
AcDbEntity
  8
Layer 1
 62
    18
420
    65793
370
    18
100
AcDbSpline
210
0.0
220
0.0
230
1.0
 70
    11
 71
     3
 72
    65
 73
    61
 74
     0
 42
0.0000000001
 43
0.0000000001
 40
0.0
 40
0.0
 40
0.0
 40
0.0
 40
1.0
 40
1.0
 40
1.0
 40
2.0
 40
2.0
 40
2.0
 40
3.0
 40
3.0
 40
3.0
 40
4.0
 40
4.0
 40
4.0
 40
5.0
 40
5.0
 40
5.0
 40
6.0
 40
6.0
 40
6.0
 40
7.0
 40
7.0
 40
7.0
 40
8.0
 40
8.0
 40
8.0
 40
9.0
 40
9.0
 40
9.0
 40
10.0
 40
10.0
 40
10.0
 40
11.0
 40
11.0
 40
11.0
 40
12.0
 40
12.0
 40
12.0
 40
13.0
 40
13.0
 40
13.0
 40
14.0
 40
14.0
 40
14.0
 40
15.0
 40
15.0
 40
15.0
 40
16.0
 40
16.0
 40
16.0
 40
17.0
 40
17.0
 40
17.0
 40
18.0
 40
18.0
 40
18.0
 40
19.0
 40
19.0
 40
19.0
 40
20.0
 40
20.0
 40
20.0
 40
20.0
 10
2.083136265766067
 20
-3.573363955902272
 30
0.0
 10
2.083136265766067
 20
-3.573363955902272
 30
0.0
 10
2.47603195954625
 20
-4.134229443484969
 30
0.0
 10
2.47603195954625
 20
-4.134229443484969
 30
0.0
 10
2.47603195954625
 20
-4.134229443484969
 30
0.0
 10
2.525387624001382
 20
-4.204686037317931
 30
0.0
 10
2.525387624001382
 20
-4.204686037317931
 30
0.0
 10
2.525387624001382
 20
-4.204686037317931
 30
0.0
 10
2.607647170723377
 20
-4.229853420770912
 30
0.0
 10
2.607647170723377
 20
-4.229853420770912
 30
0.0
 10
2.607647170723377
 20
-4.229853420770912
 30
0.0
 10
3.262475578747398
 20
-4.43020321345101
 30
0.0
 10
3.262475578747398
 20
-4.43020321345101
 30
0.0
 10
3.262475578747398
 20
-4.43020321345101
 30
0.0
 10
2.85047204896317
 20
-4.977184519655755
 30
0.0
 10
2.85047204896317
 20
-4.977184519655755
 30
0.0
 10
2.85047204896317
 20
-4.977184519655755
 30
0.0
 10
2.798715676160996
 20
-5.045897166720692
 30
0.0
 10
2.798715676160996
 20
-5.045897166720692
 30
0.0
 10
2.798715676160996
 20
-5.045897166720692
 30
0.0
 10
2.800199111741183
 20
-5.131908138125393
 30
0.0
 10
2.800199111741183
 20
-5.131908138125393
 30
0.0
 10
2.800199111741183
 20
-5.131908138125393
 30
0.0
 10
2.812008581383553
 20
-5.816597025140658
 30
0.0
 10
2.812008581383553
 20
-5.816597025140658
 30
0.0
 10
2.812008581383553
 20
-5.816597025140658
 30
0.0
 10
2.164478698666395
 20
-5.593785732144523
 30
0.0
 10
2.164478698666395
 20
-5.593785732144523
 30
0.0
 10
2.164478698666395
 20
-5.593785732144523
 30
0.0
 10
2.083136265766067
 20
-5.565796753446748
 30
0.0
 10
2.083136265766067
 20
-5.565796753446748
 30
0.0
 10
2.083136265766067
 20
-5.565796753446748
 30
0.0
 10
2.001793832865738
 20
-5.593785732144523
 30
0.0
 10
2.001793832865738
 20
-5.593785732144523
 30
0.0
 10
2.001793832865738
 20
-5.593785732144523
 30
0.0
 10
1.354264426984173
 20
-5.816596389359852
 30
0.0
 10
1.354264426984173
 20
-5.816596389359852
 30
0.0
 10
1.354264426984173
 20
-5.816596389359852
 30
0.0
 10
1.366074373462146
 20
-5.131908138125393
 30
0.0
 10
1.366074373462146
 20
-5.131908138125393
 30
0.0
 10
1.366074373462146
 20
-5.131908138125393
 30
0.0
 10
1.367557967987547
 20
-5.045897166720692
 30
0.0
 10
1.367557967987547
 20
-5.045897166720692
 30
0.0
 10
1.367557967987547
 20
-5.045897166720692
 30
0.0
 10
1.315801595185361
 20
-4.977184519655755
 30
0.0
 10
1.315801595185361
 20
-4.977184519655755
 30
0.0
 10
1.315801595185361
 20
-4.977184519655755
 30
0.0
 10
0.9037971912025316
 20
-4.43020321345101
 30
0.0
 10
0.9037971912025316
 20
-4.43020321345101
 30
0.0
 10
0.9037971912025316
 20
-4.43020321345101
 30
0.0
 10
1.558625360808756
 20
-4.229853420770912
 30
0.0
 10
1.558625360808756
 20
-4.229853420770912
 30
0.0
 10
1.558625360808756
 20
-4.229853420770912
 30
0.0
 10
1.640884907530764
 20
-4.204686037317931
 30
0.0
 10
1.640884907530764
 20
-4.204686037317931
 30
0.0
 10
1.640884907530764
 20
-4.204686037317931
 30
0.0
 10
1.69024057198587
 20
-4.134229443484969
 30
0.0
 10
1.69024057198587
 20
-4.134229443484969
 30
0.0
 10
1.69024057198587
 20
-4.134229443484969
 30
0.0
 10
2.083136265766067
 20
-3.573363955902272
 30
0.0
 10
2.083136265766067
 20
-3.573363955902272
 30
0.0
  0
LWPOLYLINE
  5
86
330
70
100
AcDbEntity
  8
Layer 1
100
AcDbPolyline
 90
        4
 70
     1
 43
0.0
 10
2.270515886339012
 20
-4.841541739421004
 10
1.895756883610879
 20
-4.841541739421004
 10
1.895756883610879
 20
-4.747792043969575
 10
2.270515886339012
 20
-4.747792043969575
  0
HATCH
  5
87
330
70
100
AcDbEntity
  8
Layer 1
 62
   143
420
  8370141
440
 33554483
100
AcDbHatch
 10
0.0
 20
0.0
 30
0.0
210
0.0
220
0.0
230
1.0
  2
SOLID
 70
     1
 71
     1
 91
        1
 92
        1
 93
        4
 72
     1
 10
2.270515886339012
 20
-4.841541739421004
 11
1.895756883610879
 21
-4.841541739421004
 72
     1
 10
1.895756883610879
 20
-4.841541739421004
 11
1.895756883610879
 21
-4.747792043969575
 72
     1
 10
1.895756883610879
 20
-4.747792043969575
 11
2.270515886339012
 21
-4.747792043969575
 72
     1
 10
2.270515886339012
 20
-4.747792043969575
 11
2.270515886339012
 21
-4.841541739421004
 97
        1
330
86
 75
     0
 76
     1
 98
        1
 10
0.0
 20
0.0
450
        0
451
        0
460
0.0
461
0.0
452
        0
462
0.0
453
        0
470

  0
SPLINE
  5
88
330
70
100
AcDbEntity
  8
Layer 1
 62
    18
420
    65793
370
    18
100
AcDbSpline
210
0.0
220
0.0
230
1.0
 70
    11
 71
     3
 72
    65
 73
    61
 74
     0
 42
0.0000000001
 43
0.0000000001
 40
0.0
 40
0.0
 40
0.0
 40
0.0
 40
1.0
 40
1.0
 40
1.0
 40
2.0
 40
2.0
 40
2.0
 40
3.0
 40
3.0
 40
3.0
 40
4.0
 40
4.0
 40
4.0
 40
5.0
 40
5.0
 40
5.0
 40
6.0
 40
6.0
 40
6.0
 40
7.0
 40
7.0
 40
7.0
 40
8.0
 40
8.0
 40
8.0
 40
9.0
 40
9.0
 40
9.0
 40
10.0
 40
10.0
 40
10.0
 40
11.0
 40
11.0
 40
11.0
 40
12.0
 40
12.0
 40
12.0
 40
13.0
 40
13.0
 40
13.0
 40
14.0
 40
14.0
 40
14.0
 40
15.0
 40
15.0
 40
15.0
 40
16.0
 40
16.0
 40
16.0
 40
17.0
 40
17.0
 40
17.0
 40
18.0
 40
18.0
 40
18.0
 40
19.0
 40
19.0
 40
19.0
 40
20.0
 40
20.0
 40
20.0
 40
20.0
 10
4.559117968999644
 20
2.041388187444277
 30
0.0
 10
4.559117968999644
 20
2.041388187444277
 30
0.0
 10
4.883760844187362
 20
1.577954201996766
 30
0.0
 10
4.883760844187362
 20
1.577954201996766
 30
0.0
 10
4.883760844187362
 20
1.577954201996766
 30
0.0
 10
4.949568290830711
 20
1.484013136520856
 30
0.0
 10
4.949568290830711
 20
1.484013136520856
 30
0.0
 10
4.949568290830711
 20
1.484013136520856
 30
0.0
 10
5.059248110313925
 20
1.450455353688564
 30
0.0
 10
5.059248110313925
 20
1.450455353688564
 30
0.0
 10
5.059248110313925
 20
1.450455353688564
 30
0.0
 10
5.600321979628991
 20
1.284910110013584
 30
0.0
 10
5.600321979628991
 20
1.284910110013584
 30
0.0
 10
5.600321979628991
 20
1.284910110013584
 30
0.0
 10
5.259890839003244
 20
0.832948789323167
 30
0.0
 10
5.259890839003244
 20
0.832948789323167
 30
0.0
 10
5.259890839003244
 20
0.832948789323167
 30
0.0
 10
5.190882394915408
 20
0.7413321384968362
 30
0.0
 10
5.190882394915408
 20
0.7413321384968362
 30
0.0
 10
5.190882394915408
 20
0.7413321384968362
 30
0.0
 10
5.192860467967546
 20
0.6266512671444514
 30
0.0
 10
5.192860467967546
 20
0.6266512671444514
 30
0.0
 10
5.192860467967546
 20
0.6266512671444514
 30
0.0
 10
5.202617955038375
 20
0.060903618704477
 30
0.0
 10
5.202617955038375
 20
0.060903618704477
 30
0.0
 10
5.202617955038375
 20
0.060903618704477
 30
0.0
 10
4.667574069364465
 20
0.2450085758507106
 30
0.0
 10
4.667574069364465
 20
0.2450085758507106
 30
0.0
 10
4.667574069364465
 20
0.2450085758507106
 30
0.0
 10
4.559117968999644
 20
0.2823276379682764
 30
0.0
 10
4.559117968999644
 20
0.2823276379682764
 30
0.0
 10
4.559117968999644
 20
0.2823276379682764
 30
0.0
 10
4.450661868634824
 20
0.2450085758507106
 30
0.0
 10
4.450661868634824
 20
0.2450085758507106
 30
0.0
 10
4.450661868634824
 20
0.2450085758507106
 30
0.0
 10
3.915618459796531
 20
0.060903618704477
 30
0.0
 10
3.915618459796531
 20
0.060903618704477
 30
0.0
 10
3.915618459796531
 20
0.060903618704477
 30
0.0
 10
3.92537674159338
 20
0.6266506313636329
 30
0.0
 10
3.92537674159338
 20
0.6266506313636329
 30
0.0
 10
3.92537674159338
 20
0.6266506313636329
 30
0.0
 10
3.927354655700304
 20
0.7413321384968362
 30
0.0
 10
3.927354655700304
 20
0.7413321384968362
 30
0.0
 10
3.927354655700304
 20
0.7413321384968362
 30
0.0
 10
3.858346370557658
 20
0.832948789323167
 30
0.0
 10
3.858346370557658
 20
0.832948789323167
 30
0.0
 10
3.858346370557658
 20
0.832948789323167
 30
0.0
 10
3.517914355733283
 20
1.284910110013584
 30
0.0
 10
3.517914355733283
 20
1.284910110013584
 30
0.0
 10
3.517914355733283
 20
1.284910110013584
 30
0.0
 10
4.058987827685364
 20
1.450455353688564
 30
0.0
 10
4.058987827685364
 20
1.450455353688564
 30
0.0
 10
4.058987827685364
 20
1.450455353688564
 30
0.0
 10
4.168667647168578
 20
1.484013136520856
 30
0.0
 10
4.168667647168578
 20
1.484013136520856
 30
0.0
 10
4.168667647168578
 20
1.484013136520856
 30
0.0
 10
4.234475093811927
 20
1.577954201996766
 30
0.0
 10
4.234475093811927
 20
1.577954201996766
 30
0.0
 10
4.234475093811927
 20
1.577954201996766
 30
0.0
 10
4.559117968999644
 20
2.041388187444277
 30
0.0
 10
4.559117968999644
 20
2.041388187444277
 30
0.0
  0
LWPOLYLINE
  5
89
330
70
100
AcDbEntity
  8
Layer 1
100
AcDbPolyline
 90
        4
 70
     1
 43
0.0
 10
4.722916457305877
 20
0.9184545304844959
 10
4.395319878056398
 20
0.9184545304844959
 10
4.395319878056398
 20
1.012204225935912
 10
4.722916457305877
 20
1.012204225935912
  0
HATCH
  5
8A
330
70
100
AcDbEntity
  8
Layer 1
 62
   143
420
  8370141
440
 33554483
100
AcDbHatch
 10
0.0
 20
0.0
 30
0.0
210
0.0
220
0.0
230
1.0
  2
SOLID
 70
     1
 71
     1
 91
        1
 92
        1
 93
        4
 72
     1
 10
4.722916457305877
 20
0.9184545304844959
 11
4.395319878056398
 21
0.9184545304844959
 72
     1
 10
4.395319878056398
 20
0.9184545304844959
 11
4.395319878056398
 21
1.012204225935912
 72
     1
 10
4.395319878056398
 20
1.012204225935912
 11
4.722916457305877
 21
1.012204225935912
 72
     1
 10
4.722916457305877
 20
1.012204225935912
 11
4.722916457305877
 21
0.9184545304844959
 97
        1
330
89
 75
     0
 76
     1
 98
        1
 10
0.0
 20
0.0
450
        0
451
        0
460
0.0
461
0.0
452
        0
462
0.0
453
        0
470

  0
SPLINE
  5
8B
330
70
100
AcDbEntity
  8
Layer 1
 62
    18
420
    65793
370
    18
100
AcDbSpline
210
0.0
220
0.0
230
1.0
 70
    11
 71
     3
 72
    65
 73
    61
 74
     0
 42
0.0000000001
 43
0.0000000001
 40
0.0
 40
0.0
 40
0.0
 40
0.0
 40
1.0
 40
1.0
 40
1.0
 40
2.0
 40
2.0
 40
2.0
 40
3.0
 40
3.0
 40
3.0
 40
4.0
 40
4.0
 40
4.0
 40
5.0
 40
5.0
 40
5.0
 40
6.0
 40
6.0
 40
6.0
 40
7.0
 40
7.0
 40
7.0
 40
8.0
 40
8.0
 40
8.0
 40
9.0
 40
9.0
 40
9.0
 40
10.0
 40
10.0
 40
10.0
 40
11.0
 40
11.0
 40
11.0
 40
12.0
 40
12.0
 40
12.0
 40
13.0
 40
13.0
 40
13.0
 40
14.0
 40
14.0
 40
14.0
 40
15.0
 40
15.0
 40
15.0
 40
16.0
 40
16.0
 40
16.0
 40
17.0
 40
17.0
 40
17.0
 40
18.0
 40
18.0
 40
18.0
 40
19.0
 40
19.0
 40
19.0
 40
20.0
 40
20.0
 40
20.0
 40
20.0
 10
4.559117968999619
 20
-1.607637939076703
 30
0.0
 10
4.559117968999619
 20
-1.607637939076703
 30
0.0
 10
4.815508979266066
 20
-1.973639786608221
 30
0.0
 10
4.815508979266066
 20
-1.973639786608221
 30
0.0
 10
4.815508979266066
 20
-1.973639786608221
 30
0.0
 10
4.897768367042872
 20
-2.09106659528873
 30
0.0
 10
4.897768367042872
 20
-2.09106659528873
 30
0.0
 10
4.897768367042872
 20
-2.09106659528873
 30
0.0
 10
5.034867505616071
 20
-2.133013505938669
 30
0.0
 10
5.034867505616071
 20
-2.133013505938669
 30
0.0
 10
5.034867505616071
 20
-2.133013505938669
 30
0.0
 10
5.462186995167408
 20
-2.263754836389352
 30
0.0
 10
5.462186995167408
 20
-2.263754836389352
 30
0.0
 10
5.462186995167408
 20
-2.263754836389352
 30
0.0
 10
5.19332729002892
 20
-2.620696807346285
 30
0.0
 10
5.19332729002892
 20
-2.620696807346285
 30
0.0
 10
5.19332729002892
 20
-2.620696807346285
 30
0.0
 10
5.107066615710209
 20
-2.735216826153178
 30
0.0
 10
5.107066615710209
 20
-2.735216826153178
 30
0.0
 10
5.107066615710209
 20
-2.735216826153178
 30
0.0
 10
5.109539167289059
 20
-2.878568869014871
 30
0.0
 10
5.109539167289059
 20
-2.878568869014871
 30
0.0
 10
5.109539167289059
 20
-2.878568869014871
 30
0.0
 10
5.117245466514355
 20
-3.325374643098749
 30
0.0
 10
5.117245466514355
 20
-3.325374643098749
 30
0.0
 10
5.117245466514355
 20
-3.325374643098749
 30
0.0
 10
4.694688372609763
 20
-3.179975386021598
 30
0.0
 10
4.694688372609763
 20
-3.179975386021598
 30
0.0
 10
4.694688372609763
 20
-3.179975386021598
 30
0.0
 10
4.559117810054431
 20
-3.133326876265047
 30
0.0
 10
4.559117810054431
 20
-3.133326876265047
 30
0.0
 10
4.559117810054431
 20
-3.133326876265047
 30
0.0
 10
4.423547247499072
 20
-3.179975386021598
 30
0.0
 10
4.423547247499072
 20
-3.179975386021598
 30
0.0
 10
4.423547247499072
 20
-3.179975386021598
 30
0.0
 10
4.000990630430098
 20
-3.325374007317943
 30
0.0
 10
4.000990630430098
 20
-3.325374007317943
 30
0.0
 10
4.000990630430098
 20
-3.325374007317943
 30
0.0
 10
4.008696929655418
 20
-2.878568869014871
 30
0.0
 10
4.008696929655418
 20
-2.878568869014871
 30
0.0
 10
4.008696929655418
 20
-2.878568869014871
 30
0.0
 10
4.011169799124672
 20
-2.735216826153178
 30
0.0
 10
4.011169799124672
 20
-2.735216826153178
 30
0.0
 10
4.011169799124672
 20
-2.735216826153178
 30
0.0
 10
3.924908965860746
 20
-2.620696171565479
 30
0.0
 10
3.924908965860746
 20
-2.620696171565479
 30
0.0
 10
3.924908965860746
 20
-2.620696171565479
 30
0.0
 10
3.656049340194815
 20
-2.263754836389352
 30
0.0
 10
3.656049340194815
 20
-2.263754836389352
 30
0.0
 10
3.656049340194815
 20
-2.263754836389352
 30
0.0
 10
4.083368750273595
 20
-2.133013505938669
 30
0.0
 10
4.083368750273595
 20
-2.133013505938669
 30
0.0
 10
4.083368750273595
 20
-2.133013505938669
 30
0.0
 10
4.220467888846794
 20
-2.09106659528873
 30
0.0
 10
4.220467888846794
 20
-2.09106659528873
 30
0.0
 10
4.220467888846794
 20
-2.09106659528873
 30
0.0
 10
4.302727435568789
 20
-1.973639786608221
 30
0.0
 10
4.302727435568789
 20
-1.973639786608221
 30
0.0
 10
4.302727435568789
 20
-1.973639786608221
 30
0.0
 10
4.559117968999619
 20
-1.607637939076703
 30
0.0
 10
4.559117968999619
 20
-1.607637939076703
 30
0.0
  0
LWPOLYLINE
  5
8C
330
70
100
AcDbEntity
  8
Layer 1
100
AcDbPolyline
 90
        4
 70
     1
 43
0.0
 10
4.699335245566544
 20
-2.585328105258314
 10
4.418901089795705
 20
-2.585328105258314
 10
4.418901089795705
 20
-2.491578409806884
 10
4.699335245566544
 20
-2.491578409806884
  0
HATCH
  5
8D
330
70
100
AcDbEntity
  8
Layer 1
 62
   143
420
  8370141
440
 33554483
100
AcDbHatch
 10
0.0
 20
0.0
 30
0.0
210
0.0
220
0.0
230
1.0
  2
SOLID
 70
     1
 71
     1
 91
        1
 92
        1
 93
        4
 72
     1
 10
4.699335245566544
 20
-2.585328105258314
 11
4.418901089795705
 21
-2.585328105258314
 72
     1
 10
4.418901089795705
 20
-2.585328105258314
 11
4.418901089795705
 21
-2.491578409806884
 72
     1
 10
4.418901089795705
 20
-2.491578409806884
 11
4.699335245566544
 21
-2.491578409806884
 72
     1
 10
4.699335245566544
 20
-2.491578409806884
 11
4.699335245566544
 21
-2.585328105258314
 97
        1
330
8C
 75
     0
 76
     1
 98
        1
 10
0.0
 20
0.0
450
        0
451
        0
460
0.0
461
0.0
452
        0
462
0.0
453
        0
470

  0
SPLINE
  5
8E
330
70
100
AcDbEntity
  8
Layer 1
 62
    18
420
    65793
370
    18
100
AcDbSpline
210
0.0
220
0.0
230
1.0
 70
    11
 71
     3
 72
    65
 73
    61
 74
     0
 42
0.0000000001
 43
0.0000000001
 40
0.0
 40
0.0
 40
0.0
 40
0.0
 40
1.0
 40
1.0
 40
1.0
 40
2.0
 40
2.0
 40
2.0
 40
3.0
 40
3.0
 40
3.0
 40
4.0
 40
4.0
 40
4.0
 40
5.0
 40
5.0
 40
5.0
 40
6.0
 40
6.0
 40
6.0
 40
7.0
 40
7.0
 40
7.0
 40
8.0
 40
8.0
 40
8.0
 40
9.0
 40
9.0
 40
9.0
 40
10.0
 40
10.0
 40
10.0
 40
11.0
 40
11.0
 40
11.0
 40
12.0
 40
12.0
 40
12.0
 40
13.0
 40
13.0
 40
13.0
 40
14.0
 40
14.0
 40
14.0
 40
15.0
 40
15.0
 40
15.0
 40
16.0
 40
16.0
 40
16.0
 40
17.0
 40
17.0
 40
17.0
 40
18.0
 40
18.0
 40
18.0
 40
19.0
 40
19.0
 40
19.0
 40
20.0
 40
20.0
 40
20.0
 40
20.0
 10
4.490049920460604
 20
-4.865912289361745
 30
0.0
 10
4.490049920460604
 20
-4.865912289361745
 30
0.0
 10
4.678188430024975
 20
-5.134483270538908
 30
0.0
 10
4.678188430024975
 20
-5.134483270538908
 30
0.0
 10
4.678188430024975
 20
-5.134483270538908
 30
0.0
 10
4.77689944104481
 20
-5.27539518664317
 30
0.0
 10
4.77689944104481
 20
-5.27539518664317
 30
0.0
 10
4.77689944104481
 20
-5.27539518664317
 30
0.0
 10
4.941419011324442
 20
-5.325731225110795
 30
0.0
 10
4.941419011324442
 20
-5.325731225110795
 30
0.0
 10
4.941419011324442
 20
-5.325731225110795
 30
0.0
 10
5.254984200584658
 20
-5.421668642337167
 30
0.0
 10
5.254984200584658
 20
-5.421668642337167
 30
0.0
 10
5.254984200584658
 20
-5.421668642337167
 30
0.0
 10
5.057696964077194
 20
-5.683589991998966
 30
0.0
 10
5.057696964077194
 20
-5.683589991998966
 30
0.0
 10
5.057696964077194
 20
-5.683589991998966
 30
0.0
 10
4.954183900582417
 20
-5.821014650348084
 30
0.0
 10
4.954183900582417
 20
-5.821014650348084
 30
0.0
 10
4.954183900582417
 20
-5.821014650348084
 30
0.0
 10
4.957151089633194
 20
-5.993037228938242
 30
0.0
 10
4.957151089633194
 20
-5.993037228938242
 30
0.0
 10
4.957151089633194
 20
-5.993037228938242
 30
0.0
 10
4.962805883122578
 20
-6.320901764446867
 30
0.0
 10
4.962805883122578
 20
-6.320901764446867
 30
0.0
 10
4.962805883122578
 20
-6.320901764446867
 30
0.0
 10
4.652733991535265
 20
-6.214208207438787
 30
0.0
 10
4.652733991535265
 20
-6.214208207438787
 30
0.0
 10
4.652733991535265
 20
-6.214208207438787
 30
0.0
 10
4.490049920460604
 20
-6.158229614262432
 30
0.0
 10
4.490049920460604
 20
-6.158229614262432
 30
0.0
 10
4.490049920460604
 20
-6.158229614262432
 30
0.0
 10
4.327365849385968
 20
-6.214208207438787
 30
0.0
 10
4.327365849385968
 20
-6.214208207438787
 30
0.0
 10
4.327365849385968
 20
-6.214208207438787
 30
0.0
 10
4.017294911469889
 20
-6.320901764446867
 30
0.0
 10
4.017294911469889
 20
-6.320901764446867
 30
0.0
 10
4.017294911469889
 20
-6.320901764446867
 30
0.0
 10
4.022950181794865
 20
-5.993037864719099
 30
0.0
 10
4.022950181794865
 20
-5.993037864719099
 30
0.0
 10
4.022950181794865
 20
-5.993037864719099
 30
0.0
 10
4.025917529790831
 20
-5.821014650348084
 30
0.0
 10
4.025917529790831
 20
-5.821014650348084
 30
0.0
 10
4.025917529790831
 20
-5.821014650348084
 30
0.0
 10
3.922404466296079
 20
-5.68358935621816
 30
0.0
 10
3.922404466296079
 20
-5.68358935621816
 30
0.0
 10
3.922404466296079
 20
-5.68358935621816
 30
0.0
 10
3.72511722978859
 20
-5.421668642337167
 30
0.0
 10
3.72511722978859
 20
-5.421668642337167
 30
0.0
 10
3.72511722978859
 20
-5.421668642337167
 30
0.0
 10
4.038681624322811
 20
-5.325731225110795
 30
0.0
 10
4.038681624322811
 20
-5.325731225110795
 30
0.0
 10
4.038681624322811
 20
-5.325731225110795
 30
0.0
 10
4.203201194602418
 20
-5.27539518664317
 30
0.0
 10
4.203201194602418
 20
-5.27539518664317
 30
0.0
 10
4.203201194602418
 20
-5.27539518664317
 30
0.0
 10
4.301912205622253
 20
-5.134482634758076
 30
0.0
 10
4.301912205622253
 20
-5.134482634758076
 30
0.0
 10
4.301912205622253
 20
-5.134482634758076
 30
0.0
 10
4.490049920460604
 20
-4.865912289361745
 30
0.0
 10
4.490049920460604
 20
-4.865912289361745
 30
0.0
  0
LWPOLYLINE
  5
8F
330
70
100
AcDbEntity
  8
Layer 1
100
AcDbPolyline
 90
        4
 70
     1
 43
0.0
 10
4.606926360410296
 20
-5.698358964765247
 10
4.373175069962927
 20
-5.698358964765247
 10
4.373175069962927
 20
-5.604609269313792
 10
4.606926360410296
 20
-5.604609269313792
  0
HATCH
  5
90
330
70
100
AcDbEntity
  8
Layer 1
 62
   143
420
  8370141
440
 33554483
100
AcDbHatch
 10
0.0
 20
0.0
 30
0.0
210
0.0
220
0.0
230
1.0
  2
SOLID
 70
     1
 71
     1
 91
        1
 92
        1
 93
        4
 72
     1
 10
4.606926360410296
 20
-5.698358964765247
 11
4.373175069962927
 21
-5.698358964765247
 72
     1
 10
4.373175069962927
 20
-5.698358964765247
 11
4.373175069962927
 21
-5.604609269313792
 72
     1
 10
4.373175069962927
 20
-5.604609269313792
 11
4.606926360410296
 21
-5.604609269313792
 72
     1
 10
4.606926360410296
 20
-5.604609269313792
 11
4.606926360410296
 21
-5.698358964765247
 97
        1
330
8F
 75
     0
 76
     1
 98
        1
 10
0.0
 20
0.0
450
        0
451
        0
460
0.0
461
0.0
452
        0
462
0.0
453
        0
470

  0
LWPOLYLINE
  5
91
330
70
100
AcDbEntity
  8
Layer 1
 62
    18
420
        0
370
    18
100
AcDbPolyline
 90
        4
 70
     1
 43
0.0
 10
2.38869942935883
 20
0.2674779725099875
 10
1.873986893543625
 20
0.2674779725099875
 10
1.873986893543625
 20
0.361227667961417
 10
2.38869942935883
 20
0.361227667961417
  0
LWPOLYLINE
  5
92
330
70
100
AcDbEntity
  8
Layer 1
 62
    18
420
        0
370
    18
100
AcDbPolyline
 90
        4
 70
     1
 43
0.0
 10
-0.2482029915188883
 20
-0.6166315958572947
 10
-0.7172868412042641
 20
-0.6166315958572947
 10
-0.7172868412042641
 20
-0.5228819004058652
 10
-0.2482029915188883
 20
-0.5228819004058652
  0
LWPOLYLINE
  5
93
330
70
100
AcDbEntity
  8
Layer 1
 62
    18
420
        0
370
    18
100
AcDbPolyline
 90
        4
 70
     1
 43
0.0
 10
-0.2717842032581832
 20
-5.501723053886999
 10
-0.6937056294649563
 20
-5.501723053886999
 10
-0.6937056294649563
 20
-5.40797335843557
 10
-0.2717842032581832
 20
-5.40797335843557
  0
LWPOLYLINE
  5
94
330
70
100
AcDbEntity
  8
Layer 1
 62
    18
420
        0
370
    18
100
AcDbPolyline
 90
        4
 70
     1
 43
0.0
 10
2.270515886339012
 20
-4.841541739421004
 10
1.895756883610879
 20
-4.841541739421004
 10
1.895756883610879
 20
-4.747792043969575
 10
2.270515886339012
 20
-4.747792043969575
  0
LWPOLYLINE
  5
95
330
70
100
AcDbEntity
  8
Layer 1
 62
    18
420
        0
370
    18
100
AcDbPolyline
 90
        4
 70
     1
 43
0.0
 10
4.722916457305877
 20
0.9184545304844959
 10
4.395319878056398
 20
0.9184545304844959
 10
4.395319878056398
 20
1.012204225935912
 10
4.722916457305877
 20
1.012204225935912
  0
LWPOLYLINE
  5
96
330
70
100
AcDbEntity
  8
Layer 1
 62
    18
420
        0
370
    18
100
AcDbPolyline
 90
        4
 70
     1
 43
0.0
 10
4.699335245566544
 20
-2.585328105258314
 10
4.418901089795705
 20
-2.585328105258314
 10
4.418901089795705
 20
-2.491578409806884
 10
4.699335245566544
 20
-2.491578409806884
  0
LWPOLYLINE
  5
97
330
70
100
AcDbEntity
  8
Layer 1
 62
    18
420
        0
370
    18
100
AcDbPolyline
 90
        4
 70
     1
 43
0.0
 10
4.606926360410296
 20
-5.698358964765247
 10
4.373175069962927
 20
-5.698358964765247
 10
4.373175069962927
 20
-5.604609269313792
 10
4.606926360410296
 20
-5.604609269313792
  0
LWPOLYLINE
  5
98
330
70
100
AcDbEntity
  8
Layer 1
 62
    18
420
    65793
370
    18
100
AcDbPolyline
 90
       10
 70
     1
 43
0.0
 10
4.050241173614141
 20
-8.702654413193158
 10
4.126644050417199
 20
-8.989708681770833
 10
4.375361992449825
 20
-8.989126392010499
 10
4.173863688689506
 20
-9.165958104767115
 10
4.251179062528333
 20
-9.452651957858051
 10
4.050241173614141
 20
-9.274884831497121
 10
3.849304326363228
 20
-9.452651957858051
 10
3.92661865853875
 20
-9.165958104767115
 10
3.72511722978859
 20
-8.989126392010499
 10
3.973839338474363
 20
-8.989708681770833
  0
LWPOLYLINE
  5
99
330
70
100
AcDbEntity
  8
Layer 1
 62
    18
420
    65793
370
    18
100
AcDbPolyline
 90
       10
 70
     1
 43
0.0
 10
3.193409450329984
 20
-8.702654413193158
 10
3.269812327133043
 20
-8.989708681770833
 10
3.518530269165669
 20
-8.989126392010499
 10
3.317031965405375
 20
-9.165958104767115
 10
3.394347339244177
 20
-9.452651957858051
 10
3.193409450329984
 20
-9.274884831497121
 10
2.992472603079098
 20
-9.452651957858051
 10
3.069786935254594
 20
-9.165958104767115
 10
2.868285506504485
 20
-8.989126392010499
 10
3.117007615190232
 20
-8.989708681770833
  0
SPLINE
  5
9A
330
70
100
AcDbEntity
  8
Layer 1
 62
    18
420
    65793
370
    18
100
AcDbSpline
210
0.0
220
0.0
230
1.0
 70
    11
 71
     3
 72
    65
 73
    61
 74
     0
 42
0.0000000001
 43
0.0000000001
 40
0.0
 40
0.0
 40
0.0
 40
0.0
 40
1.0
 40
1.0
 40
1.0
 40
2.0
 40
2.0
 40
2.0
 40
3.0
 40
3.0
 40
3.0
 40
4.0
 40
4.0
 40
4.0
 40
5.0
 40
5.0
 40
5.0
 40
6.0
 40
6.0
 40
6.0
 40
7.0
 40
7.0
 40
7.0
 40
8.0
 40
8.0
 40
8.0
 40
9.0
 40
9.0
 40
9.0
 40
10.0
 40
10.0
 40
10.0
 40
11.0
 40
11.0
 40
11.0
 40
12.0
 40
12.0
 40
12.0
 40
13.0
 40
13.0
 40
13.0
 40
14.0
 40
14.0
 40
14.0
 40
15.0
 40
15.0
 40
15.0
 40
16.0
 40
16.0
 40
16.0
 40
17.0
 40
17.0
 40
17.0
 40
18.0
 40
18.0
 40
18.0
 40
19.0
 40
19.0
 40
19.0
 40
20.0
 40
20.0
 40
20.0
 40
20.0
 10
-0.482745194515663
 20
-6.421974566983307
 30
0.0
 10
-0.482745194515663
 20
-6.421974566983307
 30
0.0
 10
-0.0557231709118342
 20
-7.031555487743187
 30
0.0
 10
-0.0557231709118342
 20
-7.031555487743187
 30
0.0
 10
-0.0557231709118342
 20
-7.031555487743187
 30
0.0
 10
-0.0145935564960382
 20
-7.090269209973838
 30
0.0
 10
-0.0145935564960382
 20
-7.090269209973838
 30
0.0
 10
-0.0145935564960382
 20
-7.090269209973838
 30
0.0
 10
0.0539561717357628
 20
-7.111242347408429
 30
0.0
 10
0.0539561717357628
 20
-7.111242347408429
 30
0.0
 10
0.0539561717357628
 20
-7.111242347408429
 30
0.0
 10
0.7656615312238273
 20
-7.328994096700675
 30
0.0
 10
0.7656615312238273
 20
-7.328994096700675
 30
0.0
 10
0.7656615312238273
 20
-7.328994096700675
 30
0.0
 10
0.317871965805605
 20
-7.923485395662535
 30
0.0
 10
0.317871965805605
 20
-7.923485395662535
 30
0.0
 10
0.317871965805605
 20
-7.923485395662535
 30
0.0
 10
0.274741867064045
 20
-7.980745722956371
 30
0.0
 10
0.274741867064045
 20
-7.980745722956371
 30
0.0
 10
0.274741867064045
 20
-7.980745722956371
 30
0.0
 10
0.2759778249630674
 20
-8.052421744387224
 30
0.0
 10
0.2759778249630674
 20
-8.052421744387224
 30
0.0
 10
0.2759778249630674
 20
-8.052421744387224
 30
0.0
 10
0.2888128090556089
 20
-8.796580932799718
 30
0.0
 10
0.2888128090556089
 20
-8.796580932799718
 30
0.0
 10
0.2888128090556089
 20
-8.796580932799718
 30
0.0
 10
-0.4149599927105909
 20
-8.554417743440252
 30
0.0
 10
-0.4149599927105909
 20
-8.554417743440252
 30
0.0
 10
-0.4149599927105909
 20
-8.554417743440252
 30
0.0
 10
-0.482745194515663
 20
-8.531093488562014
 30
0.0
 10
-0.482745194515663
 20
-8.531093488562014
 30
0.0
 10
-0.482745194515663
 20
-8.531093488562014
 30
0.0
 10
-0.550530396320735
 20
-8.554417743440252
 30
0.0
 10
-0.550530396320735
 20
-8.554417743440252
 30
0.0
 10
-0.550530396320735
 20
-8.554417743440252
 30
0.0
 10
-1.254302721251355
 20
-8.796580932799718
 30
0.0
 10
-1.254302721251355
 20
-8.796580932799718
 30
0.0
 10
-1.254302721251355
 20
-8.796580932799718
 30
0.0
 10
-1.241467260323196
 20
-8.052421744387224
 30
0.0
 10
-1.241467260323196
 20
-8.052421744387224
 30
0.0
 10
-1.241467260323196
 20
-8.052421744387224
 30
0.0
 10
-1.240231302424187
 20
-7.980745722956371
 30
0.0
 10
-1.240231302424187
 20
-7.980745722956371
 30
0.0
 10
-1.240231302424187
 20
-7.980745722956371
 30
0.0
 10
-1.283361401165734
 20
-7.923484759881729
 30
0.0
 10
-1.283361401165734
 20
-7.923484759881729
 30
0.0
 10
-1.283361401165734
 20
-7.923484759881729
 30
0.0
 10
-1.731151363946979
 20
-7.328994096700675
 30
0.0
 10
-1.731151363946979
 20
-7.328994096700675
 30
0.0
 10
-1.731151363946979
 20
-7.328994096700675
 30
0.0
 10
-1.019446560767101
 20
-7.111242347408429
 30
0.0
 10
-1.019446560767101
 20
-7.111242347408429
 30
0.0
 10
-1.019446560767101
 20
-7.111242347408429
 30
0.0
 10
-0.9508968325353002
 20
-7.090269209973838
 30
0.0
 10
-0.9508968325353002
 20
-7.090269209973838
 30
0.0
 10
-0.9508968325353002
 20
-7.090269209973838
 30
0.0
 10
-0.9097672181194916
 20
-7.031555487743187
 30
0.0
 10
-0.9097672181194916
 20
-7.031555487743187
 30
0.0
 10
-0.9097672181194916
 20
-7.031555487743187
 30
0.0
 10
-0.482745194515663
 20
-6.421974566983307
 30
0.0
 10
-0.482745194515663
 20
-6.421974566983307
 30
0.0
  0
LWPOLYLINE
  5
9B
330
70
100
AcDbEntity
  8
Layer 1
 62
    18
420
        0
370
    18
100
AcDbPolyline
 90
        4
 70
     1
 43
0.0
 10
-0.2717842032581959
 20
-7.76277377800069
 10
-0.693705629464969
 20
-7.76277377800069
 10
-0.693705629464969
 20
-7.669024082549285
 10
-0.2717842032581959
 20
-7.669024082549285
  0
SPLINE
  5
9C
330
70
100
AcDbEntity
  8
Layer 1
 62
    18
420
    65793
370
    18
100
AcDbSpline
210
0.0
220
0.0
230
1.0
 70
    11
 71
     3
 72
    65
 73
    61
 74
     0
 42
0.0000000001
 43
0.0000000001
 40
0.0
 40
0.0
 40
0.0
 40
0.0
 40
1.0
 40
1.0
 40
1.0
 40
2.0
 40
2.0
 40
2.0
 40
3.0
 40
3.0
 40
3.0
 40
4.0
 40
4.0
 40
4.0
 40
5.0
 40
5.0
 40
5.0
 40
6.0
 40
6.0
 40
6.0
 40
7.0
 40
7.0
 40
7.0
 40
8.0
 40
8.0
 40
8.0
 40
9.0
 40
9.0
 40
9.0
 40
10.0
 40
10.0
 40
10.0
 40
11.0
 40
11.0
 40
11.0
 40
12.0
 40
12.0
 40
12.0
 40
13.0
 40
13.0
 40
13.0
 40
14.0
 40
14.0
 40
14.0
 40
15.0
 40
15.0
 40
15.0
 40
16.0
 40
16.0
 40
16.0
 40
17.0
 40
17.0
 40
17.0
 40
18.0
 40
18.0
 40
18.0
 40
19.0
 40
19.0
 40
19.0
 40
20.0
 40
20.0
 40
20.0
 40
20.0
 10
2.083136226029751
 20
-5.731912180009405
 30
0.0
 10
2.083136226029751
 20
-5.731912180009405
 30
0.0
 10
2.441905272095886
 20
-6.244060962853331
 30
0.0
 10
2.441905272095886
 20
-6.244060962853331
 30
0.0
 10
2.441905272095886
 20
-6.244060962853331
 30
0.0
 10
2.499487304480743
 20
-6.326259792507748
 30
0.0
 10
2.499487304480743
 20
-6.326259792507748
 30
0.0
 10
2.499487304480743
 20
-6.326259792507748
 30
0.0
 10
2.595456828638146
 20
-6.355622693540781
 30
0.0
 10
2.595456828638146
 20
-6.355622693540781
 30
0.0
 10
2.595456828638146
 20
-6.355622693540781
 30
0.0
 10
3.193407887835089
 20
-6.53857052960873
 30
0.0
 10
3.193407887835089
 20
-6.53857052960873
 30
0.0
 10
3.193407887835089
 20
-6.53857052960873
 30
0.0
 10
2.817190632102703
 20
-7.038041843056311
 30
0.0
 10
2.817190632102703
 20
-7.038041843056311
 30
0.0
 10
2.817190632102703
 20
-7.038041843056311
 30
0.0
 10
2.756808303130305
 20
-7.118206174111541
 30
0.0
 10
2.756808303130305
 20
-7.118206174111541
 30
0.0
 10
2.756808303130305
 20
-7.118206174111541
 30
0.0
 10
2.758539057446455
 20
-7.218552095490091
 30
0.0
 10
2.758539057446455
 20
-7.218552095490091
 30
0.0
 10
2.758539057446455
 20
-7.218552095490091
 30
0.0
 10
2.76932253580306
 20
-7.843770045327295
 30
0.0
 10
2.76932253580306
 20
-7.843770045327295
 30
0.0
 10
2.76932253580306
 20
-7.843770045327295
 30
0.0
 10
2.178035254244516
 20
-7.64031255603691
 30
0.0
 10
2.178035254244516
 20
-7.64031255603691
 30
0.0
 10
2.178035254244516
 20
-7.64031255603691
 30
0.0
 10
2.083136226029751
 20
-7.607658217738844
 30
0.0
 10
2.083136226029751
 20
-7.607658217738844
 30
0.0
 10
2.083136226029751
 20
-7.607658217738844
 30
0.0
 10
1.988237197814972
 20
-7.64031255603691
 30
0.0
 10
1.988237197814972
 20
-7.64031255603691
 30
0.0
 10
1.988237197814972
 20
-7.64031255603691
 30
0.0
 10
1.396950393092033
 20
-7.843770045327295
 30
0.0
 10
1.396950393092033
 20
-7.843770045327295
 30
0.0
 10
1.396950393092033
 20
-7.843770045327295
 30
0.0
 10
1.407734507229456
 20
-7.218552731270897
 30
0.0
 10
1.407734507229456
 20
-7.218552731270897
 30
0.0
 10
1.407734507229456
 20
-7.218552731270897
 30
0.0
 10
1.409465420490808
 20
-7.118206174111541
 30
0.0
 10
1.409465420490808
 20
-7.118206174111541
 30
0.0
 10
1.409465420490808
 20
-7.118206174111541
 30
0.0
 10
1.349083091518398
 20
-7.038041843056311
 30
0.0
 10
1.349083091518398
 20
-7.038041843056311
 30
0.0
 10
1.349083091518398
 20
-7.038041843056311
 30
0.0
 10
0.9728648821147897
 20
-6.538569893827924
 30
0.0
 10
0.9728648821147897
 20
-6.538569893827924
 30
0.0
 10
0.9728648821147897
 20
-6.538569893827924
 30
0.0
 10
1.570815623421354
 20
-6.355622693540781
 30
0.0
 10
1.570815623421354
 20
-6.355622693540781
 30
0.0
 10
1.570815623421354
 20
-6.355622693540781
 30
0.0
 10
1.666785147578757
 20
-6.326259792507748
 30
0.0
 10
1.666785147578757
 20
-6.326259792507748
 30
0.0
 10
1.666785147578757
 20
-6.326259792507748
 30
0.0
 10
1.724367179963615
 20
-6.244060962853331
 30
0.0
 10
1.724367179963615
 20
-6.244060962853331
 30
0.0
 10
1.724367179963615
 20
-6.244060962853331
 30
0.0
 10
2.083136226029751
 20
-5.731912180009405
 30
0.0
 10
2.083136226029751
 20
-5.731912180009405
 30
0.0
  0
LWPOLYLINE
  5
9D
330
70
100
AcDbEntity
  8
Layer 1
 62
    18
420
        0
370
    18
100
AcDbPolyline
 90
        4
 70
     1
 43
0.0
 10
2.270515886338999
 20
-6.92746726446785
 10
1.895756883610867
 20
-6.92746726446785
 10
1.895756883610867
 20
-6.833717569016445
 10
2.270515886338999
 20
-6.833717569016445
  0
SPLINE
  5
9E
330
70
100
AcDbEntity
  8
Layer 1
 62
    18
420
    65793
370
    18
100
AcDbSpline
210
0.0
220
0.0
230
1.0
 70
    11
 71
     3
 72
    65
 73
    61
 74
     0
 42
0.0000000001
 43
0.0000000001
 40
0.0
 40
0.0
 40
0.0
 40
0.0
 40
1.0
 40
1.0
 40
1.0
 40
2.0
 40
2.0
 40
2.0
 40
3.0
 40
3.0
 40
3.0
 40
4.0
 40
4.0
 40
4.0
 40
5.0
 40
5.0
 40
5.0
 40
6.0
 40
6.0
 40
6.0
 40
7.0
 40
7.0
 40
7.0
 40
8.0
 40
8.0
 40
8.0
 40
9.0
 40
9.0
 40
9.0
 40
10.0
 40
10.0
 40
10.0
 40
11.0
 40
11.0
 40
11.0
 40
12.0
 40
12.0
 40
12.0
 40
13.0
 40
13.0
 40
13.0
 40
14.0
 40
14.0
 40
14.0
 40
15.0
 40
15.0
 40
15.0
 40
16.0
 40
16.0
 40
16.0
 40
17.0
 40
17.0
 40
17.0
 40
18.0
 40
18.0
 40
18.0
 40
19.0
 40
19.0
 40
19.0
 40
20.0
 40
20.0
 40
20.0
 40
20.0
 10
-0.482744757416362
 20
-1.605586736001176
 30
0.0
 10
-0.482744757416362
 20
-1.605586736001176
 30
0.0
 10
0.0125296079443413
 20
-2.312599794677048
 30
0.0
 10
0.0125296079443413
 20
-2.312599794677048
 30
0.0
 10
0.0125296079443413
 20
-2.312599794677048
 30
0.0
 10
0.0372075991171086
 20
-2.347827773703114
 30
0.0
 10
0.0372075991171086
 20
-2.347827773703114
 30
0.0
 10
0.0372075991171086
 20
-2.347827773703114
 30
0.0
 10
0.0783376903685217
 20
-2.36041178332002
 30
0.0
 10
0.0783376903685217
 20
-2.36041178332002
 30
0.0
 10
0.0783376903685217
 20
-2.36041178332002
 30
0.0
 10
0.9037971912025316
 20
-2.612966810055733
 30
0.0
 10
0.9037971912025316
 20
-2.612966810055733
 30
0.0
 10
0.9037971912025316
 20
-2.612966810055733
 30
0.0
 10
0.3844351571532343
 20
-3.302479366093545
 30
0.0
 10
0.3844351571532343
 20
-3.302479366093545
 30
0.0
 10
0.3844351571532343
 20
-3.302479366093545
 30
0.0
 10
0.3585574475877516
 20
-3.336835689626
 30
0.0
 10
0.3585574475877516
 20
-3.336835689626
 30
0.0
 10
0.3585574475877516
 20
-3.336835689626
 30
0.0
 10
0.3592989269600492
 20
-3.379841175328364
 30
0.0
 10
0.3592989269600492
 20
-3.379841175328364
 30
0.0
 10
0.3592989269600492
 20
-3.379841175328364
 30
0.0
 10
0.374185257843313
 20
-4.242941602316136
 30
0.0
 10
0.374185257843313
 20
-4.242941602316136
 30
0.0
 10
0.374185257843313
 20
-4.242941602316136
 30
0.0
 10
-0.4420735409661979
 20
-3.962072712887586
 30
0.0
 10
-0.4420735409661979
 20
-3.962072712887586
 30
0.0
 10
-0.4420735409661979
 20
-3.962072712887586
 30
0.0
 10
-0.482744757416362
 20
-3.948077905648296
 30
0.0
 10
-0.482744757416362
 20
-3.948077905648296
 30
0.0
 10
-0.482744757416362
 20
-3.948077905648296
 30
0.0
 10
-0.5234159738665262
 20
-3.962072712887586
 30
0.0
 10
-0.5234159738665262
 20
-3.962072712887586
 30
0.0
 10
-0.5234159738665262
 20
-3.962072712887586
 30
0.0
 10
-1.339674613730835
 20
-4.242941602316136
 30
0.0
 10
-1.339674613730835
 20
-4.242941602316136
 30
0.0
 10
-1.339674613730835
 20
-4.242941602316136
 30
0.0
 10
-1.324787488121538
 20
-3.379841175328364
 30
0.0
 10
-1.324787488121538
 20
-3.379841175328364
 30
0.0
 10
-1.324787488121538
 20
-3.379841175328364
 30
0.0
 10
-1.324045849804052
 20
-3.336835689626
 30
0.0
 10
-1.324045849804052
 20
-3.336835689626
 30
0.0
 10
-1.324045849804052
 20
-3.336835689626
 30
0.0
 10
-1.349924354095555
 20
-3.302479366093545
 30
0.0
 10
-1.349924354095555
 20
-3.302479366093545
 30
0.0
 10
-1.349924354095555
 20
-3.302479366093545
 30
0.0
 10
-1.869287023925658
 20
-2.612966810055733
 30
0.0
 10
-1.869287023925658
 20
-2.612966810055733
 30
0.0
 10
-1.869287023925658
 20
-2.612966810055733
 30
0.0
 10
-1.043826728365628
 20
-2.36041178332002
 30
0.0
 10
-1.043826728365628
 20
-2.36041178332002
 30
0.0
 10
-1.043826728365628
 20
-2.36041178332002
 30
0.0
 10
-1.002696637114215
 20
-2.347827773703114
 30
0.0
 10
-1.002696637114215
 20
-2.347827773703114
 30
0.0
 10
-1.002696637114215
 20
-2.347827773703114
 30
0.0
 10
-0.9780186459414482
 20
-2.312599794677048
 30
0.0
 10
-0.9780186459414482
 20
-2.312599794677048
 30
0.0
 10
-0.9780186459414482
 20
-2.312599794677048
 30
0.0
 10
-0.482744757416362
 20
-1.605586736001176
 30
0.0
 10
-0.482744757416362
 20
-1.605586736001176
 30
0.0
  0
LWPOLYLINE
  5
9F
330
70
100
AcDbEntity
  8
Layer 1
 62
    18
420
        0
370
    18
100
AcDbPolyline
 90
        4
 70
     1
 43
0.0
 10
-0.2482029915188883
 20
-3.098564693841959
 10
-0.7172868412042641
 20
-3.098564693841959
 10
-0.7172868412042641
 20
-3.00481499839053
 10
-0.2482029915188883
 20
-3.00481499839053
  0
SPLINE
  5
A0
330
70
100
AcDbEntity
  8
Layer 1
 62
    18
420
    65793
370
    18
100
AcDbSpline
210
0.0
220
0.0
230
1.0
 70
    11
 71
     3
 72
    65
 73
    61
 74
     0
 42
0.0000000001
 43
0.0000000001
 40
0.0
 40
0.0
 40
0.0
 40
0.0
 40
1.0
 40
1.0
 40
1.0
 40
2.0
 40
2.0
 40
2.0
 40
3.0
 40
3.0
 40
3.0
 40
4.0
 40
4.0
 40
4.0
 40
5.0
 40
5.0
 40
5.0
 40
6.0
 40
6.0
 40
6.0
 40
7.0
 40
7.0
 40
7.0
 40
8.0
 40
8.0
 40
8.0
 40
9.0
 40
9.0
 40
9.0
 40
10.0
 40
10.0
 40
10.0
 40
11.0
 40
11.0
 40
11.0
 40
12.0
 40
12.0
 40
12.0
 40
13.0
 40
13.0
 40
13.0
 40
14.0
 40
14.0
 40
14.0
 40
15.0
 40
15.0
 40
15.0
 40
16.0
 40
16.0
 40
16.0
 40
17.0
 40
17.0
 40
17.0
 40
18.0
 40
18.0
 40
18.0
 40
19.0
 40
19.0
 40
19.0
 40
20.0
 40
20.0
 40
20.0
 40
20.0
 10
2.131343002506026
 20
-0.8458892994497469
 30
0.0
 10
2.131343002506026
 20
-0.8458892994497469
 30
0.0
 10
2.694870186459209
 20
-1.650334496041611
 30
0.0
 10
2.694870186459209
 20
-1.650334496041611
 30
0.0
 10
2.694870186459209
 20
-1.650334496041611
 30
0.0
 10
2.703096395443733
 20
-1.662076731863091
 30
0.0
 10
2.703096395443733
 20
-1.662076731863091
 30
0.0
 10
2.703096395443733
 20
-1.662076731863091
 30
0.0
 10
2.716805896043524
 20
-1.666270977881519
 30
0.0
 10
2.716805896043524
 20
-1.666270977881519
 30
0.0
 10
2.716805896043524
 20
-1.666270977881519
 30
0.0
 10
3.656020412422069
 20
-1.953630553622348
 30
0.0
 10
3.656020412422069
 20
-1.953630553622348
 30
0.0
 10
3.656020412422069
 20
-1.953630553622348
 30
0.0
 10
3.065086466049933
 20
-2.738162459393682
 30
0.0
 10
3.065086466049933
 20
-2.738162459393682
 30
0.0
 10
3.065086466049933
 20
-2.738162459393682
 30
0.0
 10
3.056460668824911
 20
-2.749614779164769
 30
0.0
 10
3.056460668824911
 20
-2.749614779164769
 30
0.0
 10
3.056460668824911
 20
-2.749614779164769
 30
0.0
 10
3.056707590197877
 20
-2.763949729138617
 30
0.0
 10
3.056707590197877
 20
-2.763949729138617
 30
0.0
 10
3.056707590197877
 20
-2.763949729138617
 30
0.0
 10
3.073645347344482
 20
-3.745992030482498
 30
0.0
 10
3.073645347344482
 20
-3.745992030482498
 30
0.0
 10
3.073645347344482
 20
-3.745992030482498
 30
0.0
 10
2.144900233601283
 20
-3.426417440984853
 30
0.0
 10
2.144900233601283
 20
-3.426417440984853
 30
0.0
 10
2.144900233601283
 20
-3.426417440984853
 30
0.0
 10
2.131343002506026
 20
-3.421752717165367
 30
0.0
 10
2.131343002506026
 20
-3.421752717165367
 30
0.0
 10
2.131343002506026
 20
-3.421752717165367
 30
0.0
 10
2.117785771410757
 20
-3.426417440984853
 30
0.0
 10
2.117785771410757
 20
-3.426417440984853
 30
0.0
 10
2.117785771410757
 20
-3.426417440984853
 30
0.0
 10
1.189040816612747
 20
-3.745992030482498
 30
0.0
 10
1.189040816612747
 20
-3.745992030482498
 30
0.0
 10
1.189040816612747
 20
-3.745992030482498
 30
0.0
 10
1.205979606903181
 20
-2.763949729138617
 30
0.0
 10
1.205979606903181
 20
-2.763949729138617
 30
0.0
 10
1.205979606903181
 20
-2.763949729138617
 30
0.0
 10
1.206226607748741
 20
-2.749614779164769
 30
0.0
 10
1.206226607748741
 20
-2.749614779164769
 30
0.0
 10
1.206226607748741
 20
-2.749614779164769
 30
0.0
 10
1.197600651578517
 20
-2.738162459393682
 30
0.0
 10
1.197600651578517
 20
-2.738162459393682
 30
0.0
 10
1.197600651578517
 20
-2.738162459393682
 30
0.0
 10
0.6066659104803623
 20
-1.953630553622348
 30
0.0
 10
0.6066659104803623
 20
-1.953630553622348
 30
0.0
 10
0.6066659104803623
 20
-1.953630553622348
 30
0.0
 10
1.545880426858932
 20
-1.666270977881519
 30
0.0
 10
1.545880426858932
 20
-1.666270977881519
 30
0.0
 10
1.545880426858932
 20
-1.666270977881519
 30
0.0
 10
1.559590404294327
 20
-1.662076731863091
 30
0.0
 10
1.559590404294327
 20
-1.662076731863091
 30
0.0
 10
1.559590404294327
 20
-1.662076731863091
 30
0.0
 10
1.567816136443234
 20
-1.650334496041611
 30
0.0
 10
1.567816136443234
 20
-1.650334496041611
 30
0.0
 10
1.567816136443234
 20
-1.650334496041611
 30
0.0
 10
2.131343002506026
 20
-0.8458892994497469
 30
0.0
 10
2.131343002506026
 20
-0.8458892994497469
 30
0.0
  0
LWPOLYLINE
  5
A1
330
70
100
AcDbEntity
  8
Layer 1
 62
    18
420
        0
370
    18
100
AcDbPolyline
 90
        4
 70
     1
 43
0.0
 10
2.388699429358805
 20
-2.477176127804277
 10
1.8739868935436
 20
-2.477176127804277
 10
1.8739868935436
 20
-2.383426432352848
 10
2.388699429358805
 20
-2.383426432352848
  0
SPLINE
  5
A2
330
70
100
AcDbEntity
  8
Layer 1
 62
    18
420
    65793
370
    18
100
AcDbSpline
210
0.0
220
0.0
230
1.0
 70
    11
 71
     3
 72
    65
 73
    61
 74
     0
 42
0.0000000001
 43
0.0000000001
 40
0.0
 40
0.0
 40
0.0
 40
0.0
 40
1.0
 40
1.0
 40
1.0
 40
2.0
 40
2.0
 40
2.0
 40
3.0
 40
3.0
 40
3.0
 40
4.0
 40
4.0
 40
4.0
 40
5.0
 40
5.0
 40
5.0
 40
6.0
 40
6.0
 40
6.0
 40
7.0
 40
7.0
 40
7.0
 40
8.0
 40
8.0
 40
8.0
 40
9.0
 40
9.0
 40
9.0
 40
10.0
 40
10.0
 40
10.0
 40
11.0
 40
11.0
 40
11.0
 40
12.0
 40
12.0
 40
12.0
 40
13.0
 40
13.0
 40
13.0
 40
14.0
 40
14.0
 40
14.0
 40
15.0
 40
15.0
 40
15.0
 40
16.0
 40
16.0
 40
16.0
 40
17.0
 40
17.0
 40
17.0
 40
18.0
 40
18.0
 40
18.0
 40
19.0
 40
19.0
 40
19.0
 40
20.0
 40
20.0
 40
20.0
 40
20.0
 10
4.559118247153744
 20
0.1573834063714862
 30
0.0
 10
4.559118247153744
 20
0.1573834063714862
 30
0.0
 10
4.849635428298622
 20
-0.2573345101180217
 30
0.0
 10
4.849635428298622
 20
-0.2573345101180217
 30
0.0
 10
4.849635428298622
 20
-0.2573345101180217
 30
0.0
 10
4.923668924981307
 20
-0.3630184471962441
 30
0.0
 10
4.923668924981307
 20
-0.3630184471962441
 30
0.0
 10
4.923668924981307
 20
-0.3630184471962441
 30
0.0
 10
5.047057927173909
 20
-0.4007711118277686
 30
0.0
 10
5.047057927173909
 20
-0.4007711118277686
 30
0.0
 10
5.047057927173909
 20
-0.4007711118277686
 30
0.0
 10
5.531254447661922
 20
-0.548915034671394
 30
0.0
 10
5.531254447661922
 20
-0.548915034671394
 30
0.0
 10
5.531254447661922
 20
-0.548915034671394
 30
0.0
 10
5.226609422142801
 20
-0.9533657268238659
 30
0.0
 10
5.226609422142801
 20
-0.9533657268238659
 30
0.0
 10
5.226609422142801
 20
-0.9533657268238659
 30
0.0
 10
5.148974862939515
 20
-1.056434061640478
 30
0.0
 10
5.148974862939515
 20
-1.056434061640478
 30
0.0
 10
5.148974862939515
 20
-1.056434061640478
 30
0.0
 10
5.151200095782415
 20
-1.185450518747517
 30
0.0
 10
5.151200095782415
 20
-1.185450518747517
 30
0.0
 10
5.151200095782415
 20
-1.185450518747517
 30
0.0
 10
5.159932227348286
 20
-1.691727865790261
 30
0.0
 10
5.159932227348286
 20
-1.691727865790261
 30
0.0
 10
5.159932227348286
 20
-1.691727865790261
 30
0.0
 10
4.681131419668645
 20
-1.526975440788166
 30
0.0
 10
4.681131419668645
 20
-1.526975440788166
 30
0.0
 10
4.681131419668645
 20
-1.526975440788166
 30
0.0
 10
4.559118088208555
 20
-1.484991654851089
 30
0.0
 10
4.559118088208555
 20
-1.484991654851089
 30
0.0
 10
4.559118088208555
 20
-1.484991654851089
 30
0.0
 10
4.437104756748466
 20
-1.526975440788166
 30
0.0
 10
4.437104756748466
 20
-1.526975440788166
 30
0.0
 10
4.437104756748466
 20
-1.526975440788166
 30
0.0
 10
3.958304266959228
 20
-1.691727865790261
 30
0.0
 10
3.958304266959228
 20
-1.691727865790261
 30
0.0
 10
3.958304266959228
 20
-1.691727865790261
 30
0.0
 10
3.967036716415501
 20
-1.185450518747517
 30
0.0
 10
3.967036716415501
 20
-1.185450518747517
 30
0.0
 10
3.967036716415501
 20
-1.185450518747517
 30
0.0
 10
3.969261949258376
 20
-1.056434061640478
 30
0.0
 10
3.969261949258376
 20
-1.056434061640478
 30
0.0
 10
3.969261949258376
 20
-1.056434061640478
 30
0.0
 10
3.891627390055115
 20
-0.9533657268238659
 30
0.0
 10
3.891627390055115
 20
-0.9533657268238659
 30
0.0
 10
3.891627390055115
 20
-0.9533657268238659
 30
0.0
 10
3.586981887700378
 20
-0.5489143988905881
 30
0.0
 10
3.586981887700378
 20
-0.5489143988905881
 30
0.0
 10
3.586981887700378
 20
-0.5489143988905881
 30
0.0
 10
4.071178249243176
 20
-0.4007711118277686
 30
0.0
 10
4.071178249243176
 20
-0.4007711118277686
 30
0.0
 10
4.071178249243176
 20
-0.4007711118277686
 30
0.0
 10
4.194567887216609
 20
-0.3630184471962441
 30
0.0
 10
4.194567887216609
 20
-0.3630184471962441
 30
0.0
 10
4.194567887216609
 20
-0.3630184471962441
 30
0.0
 10
4.268601383899269
 20
-0.2573345101180217
 30
0.0
 10
4.268601383899269
 20
-0.2573345101180217
 30
0.0
 10
4.268601383899269
 20
-0.2573345101180217
 30
0.0
 10
4.559118247153744
 20
0.1573834063714862
 30
0.0
 10
4.559118247153744
 20
0.1573834063714862
 30
0.0
  0
LWPOLYLINE
  5
A3
330
70
100
AcDbEntity
  8
Layer 1
 62
    18
420
        0
370
    18
100
AcDbPolyline
 90
        4
 70
     1
 43
0.0
 10
4.722916457305877
 20
-0.8929288230896316
 10
4.395319878056398
 20
-0.8929288230896316
 10
4.395319878056398
 20
-0.7991791276382021
 10
4.722916457305877
 20
-0.7991791276382021
  0
SPLINE
  5
A4
330
70
100
AcDbEntity
  8
Layer 1
 62
    18
420
    65793
370
    18
100
AcDbSpline
210
0.0
220
0.0
230
1.0
 70
    11
 71
     3
 72
    65
 73
    61
 74
     0
 42
0.0000000001
 43
0.0000000001
 40
0.0
 40
0.0
 40
0.0
 40
0.0
 40
1.0
 40
1.0
 40
1.0
 40
2.0
 40
2.0
 40
2.0
 40
3.0
 40
3.0
 40
3.0
 40
4.0
 40
4.0
 40
4.0
 40
5.0
 40
5.0
 40
5.0
 40
6.0
 40
6.0
 40
6.0
 40
7.0
 40
7.0
 40
7.0
 40
8.0
 40
8.0
 40
8.0
 40
9.0
 40
9.0
 40
9.0
 40
10.0
 40
10.0
 40
10.0
 40
11.0
 40
11.0
 40
11.0
 40
12.0
 40
12.0
 40
12.0
 40
13.0
 40
13.0
 40
13.0
 40
14.0
 40
14.0
 40
14.0
 40
15.0
 40
15.0
 40
15.0
 40
16.0
 40
16.0
 40
16.0
 40
17.0
 40
17.0
 40
17.0
 40
18.0
 40
18.0
 40
18.0
 40
19.0
 40
19.0
 40
19.0
 40
20.0
 40
20.0
 40
20.0
 40
20.0
 10
4.559117651109267
 20
-3.227179119227785
 30
0.0
 10
4.559117651109267
 20
-3.227179119227785
 30
0.0
 10
4.781382172606854
 20
-3.54446553358212
 30
0.0
 10
4.781382172606854
 20
-3.54446553358212
 30
0.0
 10
4.781382172606854
 20
-3.54446553358212
 30
0.0
 10
4.871868087258588
 20
-3.673635213864927
 30
0.0
 10
4.871868087258588
 20
-3.673635213864927
 30
0.0
 10
4.871868087258588
 20
-3.673635213864927
 30
0.0
 10
5.022677203267195
 20
-3.719775734752475
 30
0.0
 10
5.022677203267195
 20
-3.719775734752475
 30
0.0
 10
5.022677203267195
 20
-3.719775734752475
 30
0.0
 10
5.393119423464061
 20
-3.833115744371828
 30
0.0
 10
5.393119423464061
 20
-3.833115744371828
 30
0.0
 10
5.393119423464061
 20
-3.833115744371828
 30
0.0
 10
5.160046230795185
 20
-4.142547086790803
 30
0.0
 10
5.160046230795185
 20
-4.142547086790803
 30
0.0
 10
5.160046230795185
 20
-4.142547086790803
 30
0.0
 10
5.065159759251476
 20
-4.268519425368771
 30
0.0
 10
5.065159759251476
 20
-4.268519425368771
 30
0.0
 10
5.065159759251476
 20
-4.268519425368771
 30
0.0
 10
5.06787915273066
 20
-4.426205782423519
 30
0.0
 10
5.06787915273066
 20
-4.426205782423519
 30
0.0
 10
5.06787915273066
 20
-4.426205782423519
 30
0.0
 10
5.074559619615405
 20
-4.813541890890974
 30
0.0
 10
5.074559619615405
 20
-4.813541890890974
 30
0.0
 10
5.074559619615405
 20
-4.813541890890974
 30
0.0
 10
4.708244967924252
 20
-4.687495801738754
 30
0.0
 10
4.708244967924252
 20
-4.687495801738754
 30
0.0
 10
4.708244967924252
 20
-4.687495801738754
 30
0.0
 10
4.559117651109267
 20
-4.63618193238191
 30
0.0
 10
4.559117651109267
 20
-4.63618193238191
 30
0.0
 10
4.559117651109267
 20
-4.63618193238191
 30
0.0
 10
4.409990334294257
 20
-4.687495801738754
 30
0.0
 10
4.409990334294257
 20
-4.687495801738754
 30
0.0
 10
4.409990334294257
 20
-4.687495801738754
 30
0.0
 10
4.043676477329123
 20
-4.813541890890974
 30
0.0
 10
4.043676477329123
 20
-4.813541890890974
 30
0.0
 10
4.043676477329123
 20
-4.813541890890974
 30
0.0
 10
4.050357421049461
 20
-4.426206418204325
 30
0.0
 10
4.050357421049461
 20
-4.426206418204325
 30
0.0
 10
4.050357421049461
 20
-4.426206418204325
 30
0.0
 10
4.053076973473884
 20
-4.268519425368771
 30
0.0
 10
4.053076973473884
 20
-4.268519425368771
 30
0.0
 10
4.053076973473884
 20
-4.268519425368771
 30
0.0
 10
3.958190342984936
 20
-4.142545815229166
 30
0.0
 10
3.958190342984936
 20
-4.142545815229166
 30
0.0
 10
3.958190342984936
 20
-4.142545815229166
 30
0.0
 10
3.725116911898238
 20
-3.833115108591022
 30
0.0
 10
3.725116911898238
 20
-3.833115108591022
 30
0.0
 10
3.725116911898238
 20
-3.833115108591022
 30
0.0
 10
4.095558734732144
 20
-3.719775734752475
 30
0.0
 10
4.095558734732144
 20
-3.719775734752475
 30
0.0
 10
4.095558734732144
 20
-3.719775734752475
 30
0.0
 10
4.24636800968594
 20
-3.673635213864927
 30
0.0
 10
4.24636800968594
 20
-3.673635213864927
 30
0.0
 10
4.24636800968594
 20
-3.673635213864927
 30
0.0
 10
4.33685376539246
 20
-3.544464897801314
 30
0.0
 10
4.33685376539246
 20
-3.544464897801314
 30
0.0
 10
4.33685376539246
 20
-3.544464897801314
 30
0.0
 10
4.559117651109267
 20
-3.227179119227785
 30
0.0
 10
4.559117651109267
 20
-3.227179119227785
 30
0.0
  0
LWPOLYLINE
  5
A5
330
70
100
AcDbEntity
  8
Layer 1
 62
    18
420
        0
370
    18
100
AcDbPolyline
 90
        4
 70
     1
 43
0.0
 10
4.699335245566569
 20
-4.132247222129914
 10
4.418901089795755
 20
-4.132247222129914
 10
4.418901089795755
 20
-4.038497526678485
 10
4.699335245566569
 20
-4.038497526678485
  0
SPLINE
  5
A6
330
70
100
AcDbEntity
  8
Layer 1
 62
    18
420
    65793
370
    18
100
AcDbSpline
210
0.0
220
0.0
230
1.0
 70
    11
 71
     3
 72
    65
 73
    61
 74
     0
 42
0.0000000001
 43
0.0000000001
 40
0.0
 40
0.0
 40
0.0
 40
0.0
 40
1.0
 40
1.0
 40
1.0
 40
2.0
 40
2.0
 40
2.0
 40
3.0
 40
3.0
 40
3.0
 40
4.0
 40
4.0
 40
4.0
 40
5.0
 40
5.0
 40
5.0
 40
6.0
 40
6.0
 40
6.0
 40
7.0
 40
7.0
 40
7.0
 40
8.0
 40
8.0
 40
8.0
 40
9.0
 40
9.0
 40
9.0
 40
10.0
 40
10.0
 40
10.0
 40
11.0
 40
11.0
 40
11.0
 40
12.0
 40
12.0
 40
12.0
 40
13.0
 40
13.0
 40
13.0
 40
14.0
 40
14.0
 40
14.0
 40
15.0
 40
15.0
 40
15.0
 40
16.0
 40
16.0
 40
16.0
 40
17.0
 40
17.0
 40
17.0
 40
18.0
 40
18.0
 40
18.0
 40
19.0
 40
19.0
 40
19.0
 40
20.0
 40
20.0
 40
20.0
 40
20.0
 10
4.490050635714017
 20
-6.265659810995152
 30
0.0
 10
4.490050635714017
 20
-6.265659810995152
 30
0.0
 10
4.64406249756434
 20
-6.485514087433531
 30
0.0
 10
4.64406249756434
 20
-6.485514087433531
 30
0.0
 10
4.64406249756434
 20
-6.485514087433531
 30
0.0
 10
4.750999558623485
 20
-6.638169510920912
 30
0.0
 10
4.750999558623485
 20
-6.638169510920912
 30
0.0
 10
4.750999558623485
 20
-6.638169510920912
 30
0.0
 10
4.929228947393312
 20
-6.692700431187757
 30
0.0
 10
4.929228947393312
 20
-6.692700431187757
 30
0.0
 10
4.929228947393312
 20
-6.692700431187757
 30
0.0
 10
5.185916708353841
 20
-6.771235891801956
 30
0.0
 10
5.185916708353841
 20
-6.771235891801956
 30
0.0
 10
5.185916708353841
 20
-6.771235891801956
 30
0.0
 10
5.024415348535208
 20
-6.985647248706653
 30
0.0
 10
5.024415348535208
 20
-6.985647248706653
 30
0.0
 10
5.024415348535208
 20
-6.985647248706653
 30
0.0
 10
4.912276646760624
 20
-7.134523591046015
 30
0.0
 10
4.912276646760624
 20
-7.134523591046015
 30
0.0
 10
4.912276646760624
 20
-7.134523591046015
 30
0.0
 10
4.915490836656949
 20
-7.320880483829214
 30
0.0
 10
4.915490836656949
 20
-7.320880483829214
 30
0.0
 10
4.915490836656949
 20
-7.320880483829214
 30
0.0
 10
4.920119956750972
 20
-7.589274717940598
 30
0.0
 10
4.920119956750972
 20
-7.589274717940598
 30
0.0
 10
4.920119956750972
 20
-7.589274717940598
 30
0.0
 10
4.666291619993494
 20
-7.501934328857461
 30
0.0
 10
4.666291619993494
 20
-7.501934328857461
 30
0.0
 10
4.666291619993494
 20
-7.501934328857461
 30
0.0
 10
4.490050317823614
 20
-7.44129101186162
 30
0.0
 10
4.490050317823614
 20
-7.44129101186162
 30
0.0
 10
4.490050317823614
 20
-7.44129101186162
 30
0.0
 10
4.313809015653709
 20
-7.501934328857461
 30
0.0
 10
4.313809015653709
 20
-7.501934328857461
 30
0.0
 10
4.313809015653709
 20
-7.501934328857461
 30
0.0
 10
4.059981791512679
 20
-7.589274717940598
 30
0.0
 10
4.059981791512679
 20
-7.589274717940598
 30
0.0
 10
4.059981791512679
 20
-7.589274717940598
 30
0.0
 10
4.064611229497081
 20
-7.320881119610071
 30
0.0
 10
4.064611229497081
 20
-7.320881119610071
 30
0.0
 10
4.064611229497081
 20
-7.320881119610071
 30
0.0
 10
4.067825578338619
 20
-7.134523591046015
 30
0.0
 10
4.067825578338619
 20
-7.134523591046015
 30
0.0
 10
4.067825578338619
 20
-7.134523591046015
 30
0.0
 10
3.9556859228928
 20
-6.985646612925847
 30
0.0
 10
3.9556859228928
 20
-6.985646612925847
 30
0.0
 10
3.9556859228928
 20
-6.985646612925847
 30
0.0
 10
3.794184722019356
 20
-6.771235891801956
 30
0.0
 10
3.794184722019356
 20
-6.771235891801956
 30
0.0
 10
3.794184722019356
 20
-6.771235891801956
 30
0.0
 10
4.050872482979912
 20
-6.692700431187757
 30
0.0
 10
4.050872482979912
 20
-6.692700431187757
 30
0.0
 10
4.050872482979912
 20
-6.692700431187757
 30
0.0
 10
4.229101712804523
 20
-6.638169510920912
 30
0.0
 10
4.229101712804523
 20
-6.638169510920912
 30
0.0
 10
4.229101712804523
 20
-6.638169510920912
 30
0.0
 10
4.336038932808883
 20
-6.485514087433531
 30
0.0
 10
4.336038932808883
 20
-6.485514087433531
 30
0.0
 10
4.336038932808883
 20
-6.485514087433531
 30
0.0
 10
4.490050635714017
 20
-6.265659810995152
 30
0.0
 10
4.490050635714017
 20
-6.265659810995152
 30
0.0
  0
LWPOLYLINE
  5
A7
330
70
100
AcDbEntity
  8
Layer 1
 62
    18
420
        0
370
    18
100
AcDbPolyline
 90
        4
 70
     1
 43
0.0
 10
4.606926360410296
 20
-7.025484423119197
 10
4.373175069962901
 20
-7.025484423119197
 10
4.373175069962901
 20
-6.931734727667743
 10
4.606926360410296
 20
-6.931734727667743
  0
SPLINE
  5
A8
330
70
100
AcDbEntity
  8
Layer 1
 62
    18
420
    65793
370
    18
100
AcDbSpline
210
0.0
220
0.0
230
1.0
 70
    11
 71
     3
 72
    65
 73
    61
 74
     0
 42
0.0000000001
 43
0.0000000001
 40
0.0
 40
0.0
 40
0.0
 40
0.0
 40
1.0
 40
1.0
 40
1.0
 40
2.0
 40
2.0
 40
2.0
 40
3.0
 40
3.0
 40
3.0
 40
4.0
 40
4.0
 40
4.0
 40
5.0
 40
5.0
 40
5.0
 40
6.0
 40
6.0
 40
6.0
 40
7.0
 40
7.0
 40
7.0
 40
8.0
 40
8.0
 40
8.0
 40
9.0
 40
9.0
 40
9.0
 40
10.0
 40
10.0
 40
10.0
 40
11.0
 40
11.0
 40
11.0
 40
12.0
 40
12.0
 40
12.0
 40
13.0
 40
13.0
 40
13.0
 40
14.0
 40
14.0
 40
14.0
 40
15.0
 40
15.0
 40
15.0
 40
16.0
 40
16.0
 40
16.0
 40
17.0
 40
17.0
 40
17.0
 40
18.0
 40
18.0
 40
18.0
 40
19.0
 40
19.0
 40
19.0
 40
20.0
 40
20.0
 40
20.0
 40
20.0
 10
2.034900362835502
 20
-7.797609900413994
 30
0.0
 10
2.034900362835502
 20
-7.797609900413994
 30
0.0
 10
2.154785894862192
 20
-7.968748743675152
 30
0.0
 10
2.154785894862192
 20
-7.968748743675152
 30
0.0
 10
2.154785894862192
 20
-7.968748743675152
 30
0.0
 10
2.26994980068668
 20
-8.133147038764844
 30
0.0
 10
2.26994980068668
 20
-8.133147038764844
 30
0.0
 10
2.26994980068668
 20
-8.133147038764844
 30
0.0
 10
2.461888213220668
 20
-8.191872205050104
 30
0.0
 10
2.461888213220668
 20
-8.191872205050104
 30
0.0
 10
2.461888213220668
 20
-8.191872205050104
 30
0.0
 10
2.661698545881563
 20
-8.253005073271399
 30
0.0
 10
2.661698545881563
 20
-8.253005073271399
 30
0.0
 10
2.661698545881563
 20
-8.253005073271399
 30
0.0
 10
2.535983380642139
 20
-8.419906437418932
 30
0.0
 10
2.535983380642139
 20
-8.419906437418932
 30
0.0
 10
2.535983380642139
 20
-8.419906437418932
 30
0.0
 10
2.415218563752116
 20
-8.580235099529343
 30
0.0
 10
2.415218563752116
 20
-8.580235099529343
 30
0.0
 10
2.415218563752116
 20
-8.580235099529343
 30
0.0
 10
2.418680072384416
 20
-8.780927578067247
 30
0.0
 10
2.418680072384416
 20
-8.780927578067247
 30
0.0
 10
2.418680072384416
 20
-8.780927578067247
 30
0.0
 10
2.422283519083066
 20
-8.989850239219725
 30
0.0
 10
2.422283519083066
 20
-8.989850239219725
 30
0.0
 10
2.422283519083066
 20
-8.989850239219725
 30
0.0
 10
2.224699055045864
 20
-8.921862382280778
 30
0.0
 10
2.224699055045864
 20
-8.921862382280778
 30
0.0
 10
2.224699055045864
 20
-8.921862382280778
 30
0.0
 10
2.034900044945099
 20
-8.85655434146545
 30
0.0
 10
2.034900044945099
 20
-8.85655434146545
 30
0.0
 10
2.034900044945099
 20
-8.85655434146545
 30
0.0
 10
1.845101034844333
 20
-8.921862382280778
 30
0.0
 10
1.845101034844333
 20
-8.921862382280778
 30
0.0
 10
1.845101034844333
 20
-8.921862382280778
 30
0.0
 10
1.647517206587937
 20
-8.989849603438919
 30
0.0
 10
1.647517206587937
 20
-8.989849603438919
 30
0.0
 10
1.647517206587937
 20
-8.989849603438919
 30
0.0
 10
1.651120812231788
 20
-8.780927578067247
 30
0.0
 10
1.651120812231788
 20
-8.780927578067247
 30
0.0
 10
1.651120812231788
 20
-8.780927578067247
 30
0.0
 10
1.654582320864089
 20
-8.580235099529343
 30
0.0
 10
1.654582320864089
 20
-8.580235099529343
 30
0.0
 10
1.654582320864089
 20
-8.580235099529343
 30
0.0
 10
1.533817503974066
 20
-8.419905801638075
 30
0.0
 10
1.533817503974066
 20
-8.419905801638075
 30
0.0
 10
1.533817503974066
 20
-8.419905801638075
 30
0.0
 10
1.408102497679843
 20
-8.253005073271399
 30
0.0
 10
1.408102497679843
 20
-8.253005073271399
 30
0.0
 10
1.408102497679843
 20
-8.253005073271399
 30
0.0
 10
1.607911876669517
 20
-8.191872205050104
 30
0.0
 10
1.607911876669517
 20
-8.191872205050104
 30
0.0
 10
1.607911876669517
 20
-8.191872205050104
 30
0.0
 10
1.799851878655545
 20
-8.133147038764844
 30
0.0
 10
1.799851878655545
 20
-8.133147038764844
 30
0.0
 10
1.799851878655545
 20
-8.133147038764844
 30
0.0
 10
1.915014989754025
 20
-7.968748743675152
 30
0.0
 10
1.915014989754025
 20
-7.968748743675152
 30
0.0
 10
1.915014989754025
 20
-7.968748743675152
 30
0.0
 10
2.034900362835502
 20
-7.797609900413994
 30
0.0
 10
2.034900362835502
 20
-7.797609900413994
 30
0.0
  0
LWPOLYLINE
  5
A9
330
70
100
AcDbEntity
  8
Layer 1
 62
    18
420
        0
370
    18
100
AcDbPolyline
 90
        4
 70
     1
 43
0.0
 10
2.12865021723207
 20
-8.493389153110204
 10
1.941150826329223
 20
-8.493389153110204
 10
1.941150826329223
 20
-8.399639457658748
 10
2.12865021723207
 20
-8.399639457658748
  0
ENDSEC
  0
SECTION
  2
OBJECTS
  0
DICTIONARY
  5
C
330
0
100
AcDbDictionary
281
     1
  3
ACAD_COLOR
350
63
  3
ACAD_DETAILVIEWSTYLE
350
6A
  3
ACAD_GROUP
350
D
  3
ACAD_LAYOUT
350
62
  3
ACAD_MATERIAL
350
10
  3
ACAD_MLEADERSTYLE
350
66
  3
ACAD_MLINESTYLE
350
5F
  3
ACAD_PLOTSETTINGS
350
61
  3
ACAD_PLOTSTYLENAME
350
E
  3
ACAD_SCALELIST
350
42
  3
ACAD_SECTIONVIEWSTYLE
350
68
  3
ACAD_TABLESTYLE
350
64
  3
ACAD_VISUALSTYLE
350
29
  3
ACDB_RECOMPOSE_DATA
350
B2
  3
AcDbVariableDictionary
350
AA
  0
DICTIONARY
  5
63
102
{ACAD_REACTORS
330
C
102
}
330
C
100
AcDbDictionary
281
     1
  0
DICTIONARY
  5
6A
102
{ACAD_REACTORS
330
C
102
}
330
C
100
AcDbDictionary
281
     1
  3
Imperial24
350
6B
  0
DICTIONARY
  5
D
102
{ACAD_REACTORS
330
C
102
}
330
C
100
AcDbDictionary
281
     1
  0
DICTIONARY
  5
62
102
{ACAD_REACTORS
330
C
102
}
330
C
100
AcDbDictionary
281
     1
  3
Layout1
350
6F
  3
Layout2
350
77
  3
Model
350
73
  0
DICTIONARY
  5
10
102
{ACAD_REACTORS
330
C
102
}
330
C
100
AcDbDictionary
281
     1
  3
ByBlock
350
19
  3
ByLayer
350
11
  3
Global
350
21
  0
DICTIONARY
  5
66
102
{ACAD_REACTORS
330
C
102
}
330
C
100
AcDbDictionary
281
     1
  3
Standard
350
67
  0
DICTIONARY
  5
5F
102
{ACAD_REACTORS
330
C
102
}
330
C
100
AcDbDictionary
281
     1
  3
Standard
350
60
  0
DICTIONARY
  5
61
102
{ACAD_REACTORS
330
C
102
}
330
C
100
AcDbDictionary
281
     1
  0
ACDBDICTIONARYWDFLT
  5
E
102
{ACAD_REACTORS
330
C
102
}
330
C
100
AcDbDictionary
281
     1
  3
Normal
350
F
100
AcDbDictionaryWithDefault
340
F
  0
DICTIONARY
  5
42
102
{ACAD_REACTORS
330
C
102
}
330
C
100
AcDbDictionary
281
     1
  3
A0
350
43
  3
A1
350
44
  3
A2
350
45
  3
A3
350
46
  3
A4
350
47
  3
A5
350
48
  3
A6
350
49
  3
A7
350
4A
  3
A8
350
4B
  3
A9
350
4C
  3
B0
350
4D
  3
B1
350
4E
  3
B2
350
4F
  3
B3
350
50
  3
B4
350
51
  3
B5
350
52
  3
B6
350
53
  0
DICTIONARY
  5
68
102
{ACAD_REACTORS
330
C
102
}
330
C
100
AcDbDictionary
281
     1
  3
Imperial24
350
69
  0
DICTIONARY
  5
64
102
{ACAD_REACTORS
330
C
102
}
330
C
100
AcDbDictionary
281
     1
  3
Standard
350
65
  0
DICTIONARY
  5
29
102
{ACAD_REACTORS
330
C
102
}
330
C
100
AcDbDictionary
281
     1
  3
2dWireframe
350
2F
  3
Basic
350
2E
  3
Brighten
350
35
  3
ColorChange
350
39
  3
Conceptual
350
32
  3
Dim
350
34
  3
EdgeColorOff
350
41
  3
Facepattern
350
38
  3
Flat
350
2A
  3
FlatWithEdges
350
2B
  3
Gouraud
350
2C
  3
GouraudWithEdges
350
2D
  3
Hidden
350
31
  3
JitterOff
350
3F
  3
Linepattern
350
37
  3
OverhangOff
350
40
  3
Realistic
350
33
  3
Shaded
350
3E
  3
Shaded with edges
350
3D
  3
Shades of Gray
350
3A
  3
Sketchy
350
3B
  3
Thicken
350
36
  3
Wireframe
350
30
  3
X-Ray
350
3C
  0
XRECORD
  5
B2
102
{ACAD_REACTORS
330
C
102
}
330
C
100
AcDbXrecord
280
     1
 90
        1
330
65
  0
DICTIONARY
  5
AA
102
{ACAD_REACTORS
330
C
102
}
330
C
100
AcDbDictionary
281
     1
  3
CANNOSCALE
350
AF
  3
CMLEADERSTYLE
350
AC
  3
CTABLESTYLE
350
AB
  3
CVIEWDETAILSTYLE
350
AD
  3
CVIEWSECTIONSTYLE
350
AE
  0
ACDBDETAILVIEWSTYLE
  5
6B
102
{ACAD_REACTORS
330
6A
102
}
330
6A
100
AcDbModelDocViewStyle
 70
     0
  3
Imperial24
290
     1
300
Imperial24
 90
        0
100
AcDbDetailViewStyle
 70
     0
 71
     0
 90
        3
 71
     1
340
55
 62
   256
 40
0.24
340
0
 62
   256
 40
0.24
300

 40
0.36
280
     3
 71
     2
340
5D
 90
       25
 62
   256
 71
     3
340
55
 62
   256
 40
0.24
 90
        1
 40
0.75
 90
        1
300
%<\AcVar ViewType \f "%tc1">% %<\AcVar ViewDetailId>%\PSCALE %<\AcVar ViewScale \f "%sn">%
 71
     4
340
5D
 90
       25
 62
   256
340
5D
 90
       25
 62
   256
280
     0
  0
LAYOUT
  5
6F
102
{ACAD_REACTORS
330
62
102
}
330
62
100
AcDbPlotSettings
  1

  2

  4

  6

 40
0.0
 41
0.0
 42
0.0
 43
0.0
 44
0.0
 45
0.0
 46
0.0
 47
0.0
 48
0.0
 49
0.0
140
0.0
141
0.0
142
1.0
143
1.0
 70
   688
 72
     0
 73
     0
 74
     5
  7

 75
    16
147
1.0
 76
     0
 77
     2
 78
   300
148
0.0
149
0.0
100
AcDbLayout
  1
Layout1
 70
     1
 71
     1
 10
0.0
 20
0.0
 11
12.0
 21
9.0
 12
0.0
 22
0.0
 32
0.0
 14
0.0
 24
0.0
 34
0.0
 15
0.0
 25
0.0
 35
0.0
146
0.0
 13
0.0
 23
0.0
 33
0.0
 16
1.0
 26
0.0
 36
0.0
 17
0.0
 27
1.0
 37
0.0
 76
     0
330
6C
  0
LAYOUT
  5
77
102
{ACAD_REACTORS
330
62
102
}
330
62
100
AcDbPlotSettings
  1

  2

  4

  6

 40
0.0
 41
0.0
 42
0.0
 43
0.0
 44
0.0
 45
0.0
 46
0.0
 47
0.0
 48
0.0
 49
0.0
140
0.0
141
0.0
142
1.0
143
1.0
 70
   688
 72
     0
 73
     0
 74
     5
  7

 75
    16
147
1.0
 76
     0
 77
     2
 78
   300
148
0.0
149
0.0
100
AcDbLayout
  1
Layout2
 70
     1
 71
     2
 10
0.0
 20
0.0
 11
12.0
 21
9.0
 12
0.0
 22
0.0
 32
0.0
 14
0.0
 24
0.0
 34
0.0
 15
0.0
 25
0.0
 35
0.0
146
0.0
 13
0.0
 23
0.0
 33
0.0
 16
1.0
 26
0.0
 36
0.0
 17
0.0
 27
1.0
 37
0.0
 76
     0
330
74
  0
LAYOUT
  5
73
102
{ACAD_REACTORS
330
62
102
}
330
62
100
AcDbPlotSettings
  1

  2

  4

  6

 40
0.0
 41
0.0
 42
0.0
 43
0.0
 44
0.0
 45
0.0
 46
0.0
 47
0.0
 48
0.0
 49
0.0
140
0.0
141
0.0
142
1.0
143
1.0
 70
  1712
 72
     0
 73
     0
 74
     0
  7

 75
     0
147
1.0
 76
     0
 77
     2
 78
   300
148
0.0
149
0.0
100
AcDbLayout
  1
Model
 70
     1
 71
     0
 10
0.0
 20
0.0
 11
12.0
 21
9.0
 12
0.0
 22
0.0
 32
0.0
 14
0.0
 24
0.0
 34
0.0
 15
0.0
 25
0.0
 35
0.0
146
0.0
 13
0.0
 23
0.0
 33
0.0
 16
1.0
 26
0.0
 36
0.0
 17
0.0
 27
1.0
 37
0.0
 76
     0
330
70
  0
MATERIAL
  5
19
102
{ACAD_XDICTIONARY
360
1A
102
}
102
{ACAD_REACTORS
330
10
102
}
330
10
100
AcDbMaterial
  1
ByBlock
 72
     0
 43
0.0208333333333333
 43
0.0
 43
0.0
 43
0.0
 43
0.0
 43
0.0208333333333333
 43
0.0
 43
0.0
 43
0.0
 43
0.0
 43
1.0
 43
0.0
 43
0.0
 43
0.0
 43
0.0
 43
1.0
 77
     0
 47
0.0208333333333333
 47
0.0
 47
0.0
 47
0.0
 47
0.0
 47
0.0208333333333333
 47
0.0
 47
0.0
 47
0.0
 47
0.0
 47
1.0
 47
0.0
 47
0.0
 47
0.0
 47
0.0
 47
1.0
171
     0
 49
0.0208333333333333
 49
0.0
 49
0.0
 49
0.0
 49
0.0
 49
0.0208333333333333
 49
0.0
 49
0.0
 49
0.0
 49
0.0
 49
1.0
 49
0.0
 49
0.0
 49
0.0
 49
0.0
 49
1.0
175
     0
142
0.0208333333333333
142
0.0
142
0.0
142
0.0
142
0.0
142
0.0208333333333333
142
0.0
142
0.0
142
0.0
142
0.0
142
1.0
142
0.0
142
0.0
142
0.0
142
0.0
142
1.0
179
     0
144
0.0208333333333333
144
0.0
144
0.0
144
0.0
144
0.0
144
0.0208333333333333
144
0.0
144
0.0
144
0.0
144
0.0
144
1.0
144
0.0
144
0.0
144
0.0
144
0.0
144
1.0
147
0.0208333333333333
147
0.0
147
0.0
147
0.0
147
0.0
147
0.0208333333333333
147
0.0
147
0.0
147
0.0
147
0.0
147
1.0
147
0.0
147
0.0
147
0.0
147
0.0
147
1.0
  0
MATERIAL
  5
11
102
{ACAD_XDICTIONARY
360
12
102
}
102
{ACAD_REACTORS
330
10
102
}
330
10
100
AcDbMaterial
  1
ByLayer
 72
     0
 43
0.0208333333333333
 43
0.0
 43
0.0
 43
0.0
 43
0.0
 43
0.0208333333333333
 43
0.0
 43
0.0
 43
0.0
 43
0.0
 43
1.0
 43
0.0
 43
0.0
 43
0.0
 43
0.0
 43
1.0
 77
     0
 47
0.0208333333333333
 47
0.0
 47
0.0
 47
0.0
 47
0.0
 47
0.0208333333333333
 47
0.0
 47
0.0
 47
0.0
 47
0.0
 47
1.0
 47
0.0
 47
0.0
 47
0.0
 47
0.0
 47
1.0
171
     0
 49
0.0208333333333333
 49
0.0
 49
0.0
 49
0.0
 49
0.0
 49
0.0208333333333333
 49
0.0
 49
0.0
 49
0.0
 49
0.0
 49
1.0
 49
0.0
 49
0.0
 49
0.0
 49
0.0
 49
1.0
175
     0
142
0.0208333333333333
142
0.0
142
0.0
142
0.0
142
0.0
142
0.0208333333333333
142
0.0
142
0.0
142
0.0
142
0.0
142
1.0
142
0.0
142
0.0
142
0.0
142
0.0
142
1.0
179
     0
144
0.0208333333333333
144
0.0
144
0.0
144
0.0
144
0.0
144
0.0208333333333333
144
0.0
144
0.0
144
0.0
144
0.0
144
1.0
144
0.0
144
0.0
144
0.0
144
0.0
144
1.0
147
0.0208333333333333
147
0.0
147
0.0
147
0.0
147
0.0
147
0.0208333333333333
147
0.0
147
0.0
147
0.0
147
0.0
147
1.0
147
0.0
147
0.0
147
0.0
147
0.0
147
1.0
  0
MATERIAL
  5
21
102
{ACAD_XDICTIONARY
360
22
102
}
102
{ACAD_REACTORS
330
10
102
}
330
10
100
AcDbMaterial
  1
Global
 72
     0
 43
0.0208333333333333
 43
0.0
 43
0.0
 43
0.0
 43
0.0
 43
0.0208333333333333
 43
0.0
 43
0.0
 43
0.0
 43
0.0
 43
1.0
 43
0.0
 43
0.0
 43
0.0
 43
0.0
 43
1.0
 77
     0
 47
0.0208333333333333
 47
0.0
 47
0.0
 47
0.0
 47
0.0
 47
0.0208333333333333
 47
0.0
 47
0.0
 47
0.0
 47
0.0
 47
1.0
 47
0.0
 47
0.0
 47
0.0
 47
0.0
 47
1.0
171
     0
 49
0.0208333333333333
 49
0.0
 49
0.0
 49
0.0
 49
0.0
 49
0.0208333333333333
 49
0.0
 49
0.0
 49
0.0
 49
0.0
 49
1.0
 49
0.0
 49
0.0
 49
0.0
 49
0.0
 49
1.0
175
     0
142
0.0208333333333333
142
0.0
142
0.0
142
0.0
142
0.0
142
0.0208333333333333
142
0.0
142
0.0
142
0.0
142
0.0
142
1.0
142
0.0
142
0.0
142
0.0
142
0.0
142
1.0
179
     0
144
0.0208333333333333
144
0.0
144
0.0
144
0.0
144
0.0
144
0.0208333333333333
144
0.0
144
0.0
144
0.0
144
0.0
144
1.0
144
0.0
144
0.0
144
0.0
144
0.0
144
1.0
147
0.0208333333333333
147
0.0
147
0.0
147
0.0
147
0.0
147
0.0208333333333333
147
0.0
147
0.0
147
0.0
147
0.0
147
1.0
147
0.0
147
0.0
147
0.0
147
0.0
147
1.0
  0
MLEADERSTYLE
  5
67
102
{ACAD_REACTORS
330
66
102
}
330
66
100
AcDbMLeaderStyle
179
     2
170
     2
171
     1
172
     0
 90
        2
 40
0.0
 41
0.0
173
     1
 91
-1056964608
340
5B
 92
       -2
290
     1
 42
0.09
291
     1
 43
0.36
  3
Standard
 44
0.18
300

342
55
174
     1
178
     6
175
     1
176
     0
 93
-1056964608
 45
0.18
292
     0
297
     0
 46
0.18
 94
-1056964608
 47
1.0
 49
1.0
140
1.0
293
     1
141
0.0
294
     1
177
     0
142
1.0
295
     1
296
     0
143
0.125
271
     0
272
     9
273
     9
298
     1
  0
MLINESTYLE
  5
60
102
{ACAD_REACTORS
330
5F
102
}
330
5F
100
AcDbMlineStyle
  2
STANDARD
 70
     0
  3

 62
   256
 51
90.0
 52
90.0
 71
     2
 49
0.5
 62
   256
  6
BYLAYER
 49
-0.5
 62
   256
  6
BYLAYER
  0
ACDBPLACEHOLDER
  5
F
102
{ACAD_REACTORS
330
E
102
}
330
E
  0
SCALE
  5
43
102
{ACAD_REACTORS
330
42
102
}
330
42
100
AcDbScale
 70
     0
300
1:1
140
1.0
141
1.0
290
     1
  0
SCALE
  5
44
102
{ACAD_REACTORS
330
42
102
}
330
42
100
AcDbScale
 70
     0
300
1/128" = 1'-0"
140
0.0078125
141
12.0
290
     0
  0
SCALE
  5
45
102
{ACAD_REACTORS
330
42
102
}
330
42
100
AcDbScale
 70
     0
300
1/64" = 1'-0"
140
0.015625
141
12.0
290
     0
  0
SCALE
  5
46
102
{ACAD_REACTORS
330
42
102
}
330
42
100
AcDbScale
 70
     0
300
1/32" = 1'-0"
140
0.03125
141
12.0
290
     0
  0
SCALE
  5
47
102
{ACAD_REACTORS
330
42
102
}
330
42
100
AcDbScale
 70
     0
300
1/16" = 1'-0"
140
0.0625
141
12.0
290
     0
  0
SCALE
  5
48
102
{ACAD_REACTORS
330
42
102
}
330
42
100
AcDbScale
 70
     0
300
3/32" = 1'-0"
140
0.09375
141
12.0
290
     0
  0
SCALE
  5
49
102
{ACAD_REACTORS
330
42
102
}
330
42
100
AcDbScale
 70
     0
300
1/8" = 1'-0"
140
0.125
141
12.0
290
     0
  0
SCALE
  5
4A
102
{ACAD_REACTORS
330
42
102
}
330
42
100
AcDbScale
 70
     0
300
3/16" = 1'-0"
140
0.1875
141
12.0
290
     0
  0
SCALE
  5
4B
102
{ACAD_REACTORS
330
42
102
}
330
42
100
AcDbScale
 70
     0
300
1/4" = 1'-0"
140
0.25
141
12.0
290
     0
  0
SCALE
  5
4C
102
{ACAD_REACTORS
330
42
102
}
330
42
100
AcDbScale
 70
     0
300
3/8" = 1'-0"
140
0.375
141
12.0
290
     0
  0
SCALE
  5
4D
102
{ACAD_REACTORS
330
42
102
}
330
42
100
AcDbScale
 70
     0
300
1/2" = 1'-0"
140
0.5
141
12.0
290
     0
  0
SCALE
  5
4E
102
{ACAD_REACTORS
330
42
102
}
330
42
100
AcDbScale
 70
     0
300
3/4" = 1'-0"
140
0.75
141
12.0
290
     0
  0
SCALE
  5
4F
102
{ACAD_REACTORS
330
42
102
}
330
42
100
AcDbScale
 70
     0
300
1" = 1'-0"
140
1.0
141
12.0
290
     0
  0
SCALE
  5
50
102
{ACAD_REACTORS
330
42
102
}
330
42
100
AcDbScale
 70
     0
300
1-1/2" = 1'-0"
140
1.5
141
12.0
290
     0
  0
SCALE
  5
51
102
{ACAD_REACTORS
330
42
102
}
330
42
100
AcDbScale
 70
     0
300
3" = 1'-0"
140
3.0
141
12.0
290
     0
  0
SCALE
  5
52
102
{ACAD_REACTORS
330
42
102
}
330
42
100
AcDbScale
 70
     0
300
6" = 1'-0"
140
6.0
141
12.0
290
     0
  0
SCALE
  5
53
102
{ACAD_REACTORS
330
42
102
}
330
42
100
AcDbScale
 70
     0
300
1'-0" = 1'-0"
140
12.0
141
12.0
290
     0
  0
ACDBSECTIONVIEWSTYLE
  5
69
102
{ACAD_REACTORS
330
68
102
}
330
68
100
AcDbModelDocViewStyle
 70
     0
  3
Imperial24
290
     1
300
Imperial24
 90
        0
100
AcDbSectionViewStyle
 70
     0
 71
     0
 90
       78
 71
     1
340
55
 62
   256
 40
0.24
340
0
340
0
 62
   256
 40
0.24
300
I, O, Q, S, X, Z
 40
0.48
 90
        3
 40
0.18
 90
        1
 71
     2
340
5D
 90
       25
 62
   256
340
5D
 90
       50
 62
   256
 40
0.24
 40
0.0
 40
0.24
 71
     3
340
55
 62
   256
 40
0.24
 90
        1
 40
0.75
 90
        1
300
%<\AcVar ViewType \f "%tc1">% %<\AcVar ViewSectionStartId>%-%<\AcVar ViewSectionEndId>%\PSCALE %<\AcVar ViewScale \f "%sn">%
 71
     4
 62
   256
 62
   257
300
ANSI31
 40
1.0
 90
        0
290
     0
290
     0
 90
        6
 40
0.0
 40
1.570796326794896
 40
0.2617993877991494
 40
1.308996938995747
 40
-0.2617993877991494
 40
1.832595714594046
  0
TABLESTYLE
  5
65
102
{ACAD_XDICTIONARY
360
B0
102
}
102
{ACAD_REACTORS
330
64
102
}
330
64
100
AcDbTableStyle
280
     0
  3
Standard
 70
     0
 71
     0
 40
0.06
 41
0.06
280
     0
281
     0
  7
Standard
140
0.18
170
     2
 62
     0
 63
     7
283
     0
 90
      512
 91
        0
  1

274
    -2
284
     1
 64
     0
275
    -2
285
     1
 65
     0
276
    -2
286
     1
 66
     0
277
    -2
287
     1
 67
     0
278
    -2
288
     1
 68
     0
279
    -2
289
     1
 69
     0
  7
Standard
140
0.25
170
     5
 62
     0
 63
     7
283
     0
 90
      512
 91
        0
  1

274
    -2
284
     1
 64
     0
275
    -2
285
     1
 65
     0
276
    -2
286
     1
 66
     0
277
    -2
287
     1
 67
     0
278
    -2
288
     1
 68
     0
279
    -2
289
     1
 69
     0
  7
Standard
140
0.18
170
     5
 62
     0
 63
     7
283
     0
 90
      512
 91
        0
  1

274
    -2
284
     1
 64
     0
275
    -2
285
     1
 65
     0
276
    -2
286
     1
 66
     0
277
    -2
287
     1
 67
     0
278
    -2
288
     1
 68
     0
279
    -2
289
     1
 69
     0
  0
VISUALSTYLE
  5
2F
102
{ACAD_REACTORS
330
29
102
}
330
29
100
AcDbVisualStyle
  2
2dWireframe
 70
     4
177
     3
291
     0
 70
    58
 90
        0
176
     1
 90
        2
176
     1
 90
        0
176
     1
 90
        0
176
     1
 40
0.6
176
     1
 40
30.0
176
     1
 62
     7
420
 16777215
176
     1
 90
        1
176
     1
 90
        4
176
     1
 62
     7
176
     1
 62
   257
176
     1
 90
        1
176
     1
 90
        1
176
     1
 40
1.0
176
     1
 90
        0
176
     1
 62
   257
176
     1
 40
1.0
176
     1
 90
        1
176
     1
 90
        6
176
     1
 90
        2
176
     1
 62
     7
176
     1
 90
        5
176
     1
 90
        0
176
     1
 90
        0
176
     1
290
     0
176
     1
 90
        1
176
     1
 40
0.0
176
     1
 90
        0
176
     1
290
     1
176
     1
290
     1
176
     1
290
     0
176
     1
290
     0
176
     1
290
     0
176
     1
290
     0
176
     1
290
     0
176
     1
290
     0
176
     1
290
     0
176
     1
 90
       50
176
     1
 40
0.0
176
     1
 40
1.0
176
     1
 90
        0
176
     1
 62
    18
420
        0
176
     1
 90
       50
176
     1
 90
        3
176
     1
 62
     5
420
      255
176
     1
290
     0
176
     1
 90
       50
176
     1
 90
       50
176
     1
 90
       50
176
     1
290
     0
176
     1
 90
       50
176
     1
 62
   256
176
     0
 40
1.0
176
     0
 90
        2
176
     1
  1
strokes_ogs.tif
176
     1
290
     0
176
     1
 40
1.0
176
     1
 40
1.0
176
     1
  0
VISUALSTYLE
  5
2E
102
{ACAD_REACTORS
330
29
102
}
330
29
100
AcDbVisualStyle
  2
Basic
 70
     7
177
     3
291
     1
 70
    58
 90
        1
176
     1
 90
        0
176
     1
 90
        1
176
     1
 90
        0
176
     1
 40
0.6
176
     1
 40
30.0
176
     1
 62
     7
420
 16777215
176
     1
 90
        0
176
     1
 90
        4
176
     1
 62
     7
176
     1
 62
   257
176
     1
 90
        1
176
     1
 90
        1
176
     1
 40
1.0
176
     1
 90
        8
176
     1
 62
     7
176
     1
 40
1.0
176
     1
 90
        1
176
     1
 90
        6
176
     1
 90
        2
176
     1
 62
     7
176
     1
 90
        5
176
     1
 90
        0
176
     1
 90
        0
176
     1
290
     0
176
     1
 90
        1
176
     1
 40
0.0
176
     1
 90
        0
176
     1
290
     0
176
     1
290
     1
176
     1
290
     1
176
     1
290
     0
176
     1
290
     0
176
     1
290
     0
176
     1
290
     0
176
     1
290
     0
176
     1
290
     0
176
     1
 90
       50
176
     1
 40
0.0
176
     1
 40
1.0
176
     1
 90
        0
176
     1
 62
    18
420
        0
176
     1
 90
       50
176
     1
 90
        3
176
     1
 62
     5
420
      255
176
     1
290
     0
176
     1
 90
       50
176
     1
 90
       50
176
     1
 90
       50
176
     1
290
     0
176
     1
 90
       50
176
     1
 62
   256
176
     0
 40
1.0
176
     0
 90
        2
176
     1
  1
strokes_ogs.tif
176
     1
290
     0
176
     1
 40
1.0
176
     1
 40
1.0
176
     1
  0
VISUALSTYLE
  5
35
102
{ACAD_REACTORS
330
29
102
}
330
29
100
AcDbVisualStyle
  2
Brighten
 70
    12
177
     3
291
     1
 70
    58
 90
        2
176
     1
 90
        2
176
     1
 90
        0
176
     1
 90
        0
176
     1
 40
0.6
176
     1
 40
30.0
176
     1
 62
     7
420
 16777215
176
     1
 90
        1
176
     1
 90
        4
176
     1
 62
     7
176
     1
 62
   257
176
     1
 90
        1
176
     1
 90
        1
176
     1
 40
1.0
176
     1
 90
        8
176
     1
 62
     7
176
     1
 40
1.0
176
     1
 90
        1
176
     1
 90
        6
176
     1
 90
        2
176
     1
 62
     7
176
     1
 90
        5
176
     1
 90
        0
176
     1
 90
        0
176
     1
290
     0
176
     1
 90
        1
176
     1
 40
50.0
176
     1
 90
        0
176
     1
290
     0
176
     1
290
     1
176
     1
290
     1
176
     1
290
     0
176
     1
290
     0
176
     1
290
     0
176
     1
290
     0
176
     1
290
     0
176
     1
290
     0
176
     1
 90
       50
176
     1
 40
0.0
176
     1
 40
1.0
176
     1
 90
        0
176
     1
 62
    18
420
        0
176
     1
 90
       50
176
     1
 90
        3
176
     1
 62
     5
420
      255
176
     1
290
     0
176
     1
 90
       50
176
     1
 90
       50
176
     1
 90
       50
176
     1
290
     0
176
     1
 90
       50
176
     1
 62
   256
176
     0
 40
1.0
176
     0
 90
        2
176
     1
  1
strokes_ogs.tif
176
     1
290
     0
176
     1
 40
1.0
176
     1
 40
1.0
176
     1
  0
VISUALSTYLE
  5
39
102
{ACAD_REACTORS
330
29
102
}
330
29
100
AcDbVisualStyle
  2
ColorChange
 70
    16
177
     3
291
     1
 70
    58
 90
        2
176
     1
 90
        2
176
     1
 90
        3
176
     1
 90
        0
176
     1
 40
0.6
176
     1
 40
30.0
176
     1
 62
     8
420
  8421504
176
     1
 90
        1
176
     1
 90
        4
176
     1
 62
     7
176
     1
 62
   257
176
     1
 90
        1
176
     1
 90
        1
176
     1
 40
1.0
176
     1
 90
        8
176
     1
 62
     8
420
  8421504
176
     1
 40
1.0
176
     1
 90
        1
176
     1
 90
        6
176
     1
 90
        2
176
     1
 62
     7
176
     1
 90
        5
176
     1
 90
        0
176
     1
 90
        0
176
     1
290
     0
176
     1
 90
        1
176
     1
 40
0.0
176
     1
 90
        0
176
     1
290
     0
176
     1
290
     1
176
     1
290
     1
176
     1
290
     0
176
     1
290
     0
176
     1
290
     0
176
     1
290
     0
176
     1
290
     0
176
     1
290
     0
176
     1
 90
       50
176
     1
 40
0.0
176
     1
 40
1.0
176
     1
 90
        0
176
     1
 62
    18
420
        0
176
     1
 90
       50
176
     1
 90
        3
176
     1
 62
     5
420
      255
176
     1
290
     0
176
     1
 90
       50
176
     1
 90
       50
176
     1
 90
       50
176
     1
290
     0
176
     1
 90
       50
176
     1
 62
   256
176
     0
 40
1.0
176
     0
 90
        2
176
     1
  1
strokes_ogs.tif
176
     1
290
     0
176
     1
 40
1.0
176
     1
 40
1.0
176
     1
  0
VISUALSTYLE
  5
32
102
{ACAD_REACTORS
330
29
102
}
330
29
100
AcDbVisualStyle
  2
Conceptual
 70
     9
177
     3
291
     0
 70
    58
 90
        3
176
     1
 90
        2
176
     1
 90
        0
176
     1
 90
        0
176
     1
 40
0.6
176
     1
 40
30.0
176
     1
 62
     7
420
 16777215
176
     1
 90
        2
176
     1
 90
        2
176
     1
 62
     7
176
     1
 62
   257
176
     1
 90
        1
176
     1
 90
        1
176
     1
 40
179.0
176
     1
 90
        8
176
     1
 62
     7
176
     1
 40
1.0
176
     1
 90
        1
176
     1
 90
        6
176
     1
 90
        2
176
     1
 62
     7
176
     1
 90
        3
176
     1
 90
        0
176
     1
 90
        0
176
     1
290
     0
176
     1
 90
        1
176
     1
 40
0.0
176
     1
 90
        0
176
     1
290
     0
176
     1
290
     1
176
     1
290
     1
176
     1
290
     0
176
     1
290
     0
176
     1
290
     0
176
     1
290
     0
176
     1
290
     0
176
     1
290
     0
176
     1
 90
       50
176
     1
 40
0.0
176
     1
 40
1.0
176
     1
 90
        0
176
     1
 62
    18
420
        0
176
     1
 90
       50
176
     1
 90
        3
176
     1
 62
     5
420
      255
176
     1
290
     0
176
     1
 90
       50
176
     1
 90
       50
176
     1
 90
       50
176
     1
290
     0
176
     1
 90
       50
176
     1
 62
   256
176
     0
 40
1.0
176
     0
 90
        2
176
     1
  1
strokes_ogs.tif
176
     1
290
     0
176
     1
 40
1.0
176
     1
 40
1.0
176
     1
  0
VISUALSTYLE
  5
34
102
{ACAD_REACTORS
330
29
102
}
330
29
100
AcDbVisualStyle
  2
Dim
 70
    11
177
     3
291
     1
 70
    58
 90
        2
176
     1
 90
        2
176
     1
 90
        0
176
     1
 90
        0
176
     1
 40
0.6
176
     1
 40
30.0
176
     1
 62
     7
420
 16777215
176
     1
 90
        1
176
     1
 90
        4
176
     1
 62
     7
176
     1
 62
   257
176
     1
 90
        1
176
     1
 90
        1
176
     1
 40
1.0
176
     1
 90
        8
176
     1
 62
     7
176
     1
 40
1.0
176
     1
 90
        1
176
     1
 90
        6
176
     1
 90
        2
176
     1
 62
     7
176
     1
 90
        5
176
     1
 90
        0
176
     1
 90
        0
176
     1
290
     0
176
     1
 90
        1
176
     1
 40
-50.0
176
     1
 90
        0
176
     1
290
     0
176
     1
290
     1
176
     1
290
     1
176
     1
290
     0
176
     1
290
     0
176
     1
290
     0
176
     1
290
     0
176
     1
290
     0
176
     1
290
     0
176
     1
 90
       50
176
     1
 40
0.0
176
     1
 40
1.0
176
     1
 90
        0
176
     1
 62
    18
420
        0
176
     1
 90
       50
176
     1
 90
        3
176
     1
 62
     5
420
      255
176
     1
290
     0
176
     1
 90
       50
176
     1
 90
       50
176
     1
 90
       50
176
     1
290
     0
176
     1
 90
       50
176
     1
 62
   256
176
     0
 40
1.0
176
     0
 90
        2
176
     1
  1
strokes_ogs.tif
176
     1
290
     0
176
     1
 40
1.0
176
     1
 40
1.0
176
     1
  0
VISUALSTYLE
  5
41
102
{ACAD_REACTORS
330
29
102
}
330
29
100
AcDbVisualStyle
  2
EdgeColorOff
 70
    22
177
     3
291
     1
 70
    58
 90
        2
176
     0
 90
        2
176
     0
 90
        0
176
     0
 90
        0
176
     0
 40
0.6
176
     0
 40
30.0
176
     0
 62
     7
420
 16777215
176
     0
 90
        1
176
     0
 90
        4
176
     0
 62
     7
176
     0
 62
   257
176
     0
 90
        1
176
     0
 90
        1
176
     0
 40
1.0
176
     0
 90
        8
176
     2
 62
     7
176
     0
 40
1.0
176
     0
 90
        1
176
     0
 90
        6
176
     0
 90
        2
176
     0
 62
     7
176
     0
 90
        5
176
     0
 90
        0
176
     0
 90
        0
176
     0
290
     0
176
     0
 90
        1
176
     0
 40
0.0
176
     0
 90
        0
176
     0
290
     0
176
     0
290
     1
176
     0
290
     1
176
     0
290
     0
176
     0
290
     0
176
     0
290
     0
176
     0
290
     0
176
     0
290
     0
176
     0
290
     0
176
     0
 90
       50
176
     0
 40
0.0
176
     0
 40
1.0
176
     0
 90
        0
176
     0
 62
    18
420
        0
176
     0
 90
       50
176
     0
 90
        3
176
     0
 62
     5
420
      255
176
     0
290
     0
176
     0
 90
       50
176
     0
 90
       50
176
     0
 90
       50
176
     0
290
     0
176
     0
 90
       50
176
     0
 62
   256
176
     0
 40
1.0
176
     0
 90
        2
176
     0
  1
strokes_ogs.tif
176
     0
290
     0
176
     0
 40
1.0
176
     0
 40
1.0
176
     0
  0
VISUALSTYLE
  5
38
102
{ACAD_REACTORS
330
29
102
}
330
29
100
AcDbVisualStyle
  2
Facepattern
 70
    15
177
     3
291
     1
 70
    58
 90
        2
176
     1
 90
        2
176
     1
 90
        0
176
     1
 90
        0
176
     1
 40
0.6
176
     1
 40
30.0
176
     1
 62
     7
420
 16777215
176
     1
 90
        1
176
     1
 90
        4
176
     1
 62
     7
176
     1
 62
   257
176
     1
 90
        1
176
     1
 90
        1
176
     1
 40
1.0
176
     1
 90
        8
176
     1
 62
     7
176
     1
 40
1.0
176
     1
 90
        1
176
     1
 90
        6
176
     1
 90
        2
176
     1
 62
     7
176
     1
 90
        5
176
     1
 90
        0
176
     1
 90
        0
176
     1
290
     0
176
     1
 90
        1
176
     1
 40
0.0
176
     1
 90
        0
176
     1
290
     0
176
     1
290
     1
176
     1
290
     1
176
     1
290
     0
176
     1
290
     0
176
     1
290
     0
176
     1
290
     0
176
     1
290
     0
176
     1
290
     0
176
     1
 90
       50
176
     1
 40
0.0
176
     1
 40
1.0
176
     1
 90
        0
176
     1
 62
    18
420
        0
176
     1
 90
       50
176
     1
 90
        3
176
     1
 62
     5
420
      255
176
     1
290
     0
176
     1
 90
       50
176
     1
 90
       50
176
     1
 90
       50
176
     1
290
     0
176
     1
 90
       50
176
     1
 62
   256
176
     0
 40
1.0
176
     0
 90
        2
176
     1
  1
strokes_ogs.tif
176
     1
290
     0
176
     1
 40
1.0
176
     1
 40
1.0
176
     1
  0
VISUALSTYLE
  5
2A
102
{ACAD_REACTORS
330
29
102
}
330
29
100
AcDbVisualStyle
  2
Flat
 70
     0
177
     3
291
     1
 70
    58
 90
        2
176
     1
 90
        1
176
     1
 90
        1
176
     1
 90
        2
176
     1
 40
0.6
176
     1
 40
30.0
176
     1
 62
     7
420
 16777215
176
     1
 90
        0
176
     1
 90
        0
176
     1
 62
     7
176
     1
 62
   257
176
     1
 90
        1
176
     1
 90
        1
176
     1
 40
1.0
176
     1
 90
        8
176
     1
 62
     7
176
     1
 40
1.0
176
     1
 90
        1
176
     1
 90
        6
176
     1
 90
        2
176
     1
 62
     7
176
     1
 90
        5
176
     1
 90
        0
176
     1
 90
        0
176
     1
290
     0
176
     1
 90
       13
176
     1
 40
0.0
176
     1
 90
        0
176
     1
290
     0
176
     1
290
     1
176
     1
290
     1
176
     1
290
     0
176
     1
290
     0
176
     1
290
     0
176
     1
290
     0
176
     1
290
     0
176
     1
290
     0
176
     1
 90
       50
176
     1
 40
0.0
176
     1
 40
1.0
176
     1
 90
        0
176
     1
 62
    18
420
        0
176
     1
 90
       50
176
     1
 90
        3
176
     1
 62
     5
420
      255
176
     1
290
     0
176
     1
 90
       50
176
     1
 90
       50
176
     1
 90
       50
176
     1
290
     0
176
     1
 90
       50
176
     1
 62
   256
176
     0
 40
1.0
176
     0
 90
        2
176
     1
  1
strokes_ogs.tif
176
     1
290
     0
176
     1
 40
1.0
176
     1
 40
1.0
176
     1
  0
VISUALSTYLE
  5
2B
102
{ACAD_REACTORS
330
29
102
}
330
29
100
AcDbVisualStyle
  2
FlatWithEdges
 70
     1
177
     3
291
     1
 70
    58
 90
        2
176
     1
 90
        1
176
     1
 90
        1
176
     1
 90
        2
176
     1
 40
0.6
176
     1
 40
30.0
176
     1
 62
     7
420
 16777215
176
     1
 90
        1
176
     1
 90
        0
176
     1
 62
     7
176
     1
 62
   257
176
     1
 90
        1
176
     1
 90
        1
176
     1
 40
1.0
176
     1
 90
        0
176
     1
 62
   257
176
     1
 40
1.0
176
     1
 90
        1
176
     1
 90
        6
176
     1
 90
        2
176
     1
 62
     7
176
     1
 90
        5
176
     1
 90
        0
176
     1
 90
        0
176
     1
290
     0
176
     1
 90
       13
176
     1
 40
0.0
176
     1
 90
        0
176
     1
290
     0
176
     1
290
     1
176
     1
290
     1
176
     1
290
     0
176
     1
290
     0
176
     1
290
     0
176
     1
290
     0
176
     1
290
     0
176
     1
290
     0
176
     1
 90
       50
176
     1
 40
0.0
176
     1
 40
1.0
176
     1
 90
        0
176
     1
 62
    18
420
        0
176
     1
 90
       50
176
     1
 90
        3
176
     1
 62
     5
420
      255
176
     1
290
     0
176
     1
 90
       50
176
     1
 90
       50
176
     1
 90
       50
176
     1
290
     0
176
     1
 90
       50
176
     1
 62
   256
176
     0
 40
1.0
176
     0
 90
        2
176
     1
  1
strokes_ogs.tif
176
     1
290
     0
176
     1
 40
1.0
176
     1
 40
1.0
176
     1
  0
VISUALSTYLE
  5
2C
102
{ACAD_REACTORS
330
29
102
}
330
29
100
AcDbVisualStyle
  2
Gouraud
 70
     2
177
     3
291
     1
 70
    58
 90
        2
176
     1
 90
        2
176
     1
 90
        1
176
     1
 90
        2
176
     1
 40
0.6
176
     1
 40
30.0
176
     1
 62
     7
420
 16777215
176
     1
 90
        0
176
     1
 90
        0
176
     1
 62
     7
176
     1
 62
   257
176
     1
 90
        1
176
     1
 90
        1
176
     1
 40
1.0
176
     1
 90
        0
176
     1
 62
     7
176
     1
 40
1.0
176
     1
 90
        1
176
     1
 90
        6
176
     1
 90
        2
176
     1
 62
     7
176
     1
 90
        5
176
     1
 90
        0
176
     1
 90
        0
176
     1
290
     0
176
     1
 90
       13
176
     1
 40
0.0
176
     1
 90
        0
176
     1
290
     0
176
     1
290
     1
176
     1
290
     1
176
     1
290
     0
176
     1
290
     0
176
     1
290
     0
176
     1
290
     0
176
     1
290
     0
176
     1
290
     0
176
     1
 90
       50
176
     1
 40
0.0
176
     1
 40
1.0
176
     1
 90
        0
176
     1
 62
    18
420
        0
176
     1
 90
       50
176
     1
 90
        3
176
     1
 62
     5
420
      255
176
     1
290
     0
176
     1
 90
       50
176
     1
 90
       50
176
     1
 90
       50
176
     1
290
     0
176
     1
 90
       50
176
     1
 62
   256
176
     0
 40
1.0
176
     0
 90
        2
176
     1
  1
strokes_ogs.tif
176
     1
290
     0
176
     1
 40
1.0
176
     1
 40
1.0
176
     1
  0
VISUALSTYLE
  5
2D
102
{ACAD_REACTORS
330
29
102
}
330
29
100
AcDbVisualStyle
  2
GouraudWithEdges
 70
     3
177
     3
291
     1
 70
    58
 90
        2
176
     1
 90
        2
176
     1
 90
        1
176
     1
 90
        2
176
     1
 40
0.6
176
     1
 40
30.0
176
     1
 62
     7
420
 16777215
176
     1
 90
        1
176
     1
 90
        0
176
     1
 62
     7
176
     1
 62
   257
176
     1
 90
        1
176
     1
 90
        1
176
     1
 40
1.0
176
     1
 90
        0
176
     1
 62
   257
176
     1
 40
1.0
176
     1
 90
        1
176
     1
 90
        6
176
     1
 90
        2
176
     1
 62
     7
176
     1
 90
        5
176
     1
 90
        0
176
     1
 90
        0
176
     1
290
     0
176
     1
 90
       13
176
     1
 40
0.0
176
     1
 90
        0
176
     1
290
     0
176
     1
290
     1
176
     1
290
     1
176
     1
290
     0
176
     1
290
     0
176
     1
290
     0
176
     1
290
     0
176
     1
290
     0
176
     1
290
     0
176
     1
 90
       50
176
     1
 40
0.0
176
     1
 40
1.0
176
     1
 90
        0
176
     1
 62
    18
420
        0
176
     1
 90
       50
176
     1
 90
        3
176
     1
 62
     5
420
      255
176
     1
290
     0
176
     1
 90
       50
176
     1
 90
       50
176
     1
 90
       50
176
     1
290
     0
176
     1
 90
       50
176
     1
 62
   256
176
     0
 40
1.0
176
     0
 90
        2
176
     1
  1
strokes_ogs.tif
176
     1
290
     0
176
     1
 40
1.0
176
     1
 40
1.0
176
     1
  0
VISUALSTYLE
  5
31
102
{ACAD_REACTORS
330
29
102
}
330
29
100
AcDbVisualStyle
  2
Hidden
 70
     6
177
     3
291
     0
 70
    58
 90
        1
176
     1
 90
        2
176
     1
 90
        2
176
     1
 90
        0
176
     1
 40
0.6
176
     1
 40
30.0
176
     1
 62
     7
420
 16777215
176
     1
 90
        2
176
     1
 90
        2
176
     1
 62
     7
176
     1
 62
   257
176
     1
 90
        2
176
     1
 90
        1
176
     1
 40
40.0
176
     1
 90
        0
176
     1
 62
   257
176
     1
 40
1.0
176
     1
 90
        1
176
     1
 90
        6
176
     1
 90
        2
176
     1
 62
     7
176
     1
 90
        3
176
     1
 90
        0
176
     1
 90
        0
176
     1
290
     0
176
     1
 90
        1
176
     1
 40
0.0
176
     1
 90
        0
176
     1
290
     0
176
     1
290
     1
176
     1
290
     1
176
     1
290
     0
176
     1
290
     0
176
     1
290
     0
176
     1
290
     0
176
     1
290
     0
176
     1
290
     0
176
     1
 90
       50
176
     1
 40
0.0
176
     1
 40
1.0
176
     1
 90
        0
176
     1
 62
    18
420
        0
176
     1
 90
       50
176
     1
 90
        3
176
     1
 62
     5
420
      255
176
     1
290
     0
176
     1
 90
       50
176
     1
 90
       50
176
     1
 90
       50
176
     1
290
     0
176
     1
 90
       50
176
     1
 62
   256
176
     0
 40
1.0
176
     0
 90
        2
176
     1
  1
strokes_ogs.tif
176
     1
290
     0
176
     1
 40
1.0
176
     1
 40
1.0
176
     1
  0
VISUALSTYLE
  5
3F
102
{ACAD_REACTORS
330
29
102
}
330
29
100
AcDbVisualStyle
  2
JitterOff
 70
    20
177
     3
291
     1
 70
    58
 90
        2
176
     0
 90
        2
176
     0
 90
        0
176
     0
 90
        0
176
     0
 40
0.6
176
     0
 40
30.0
176
     0
 62
     7
420
 16777215
176
     0
 90
        1
176
     0
 90
        4
176
     0
 62
     7
176
     0
 62
   257
176
     0
 90
        1
176
     0
 90
        1
176
     0
 40
1.0
176
     0
 90
       10
176
     2
 62
     7
176
     0
 40
1.0
176
     0
 90
        1
176
     0
 90
        6
176
     0
 90
        2
176
     0
 62
     7
176
     0
 90
        5
176
     0
 90
        0
176
     0
 90
        0
176
     0
290
     0
176
     0
 90
        1
176
     0
 40
0.0
176
     0
 90
        0
176
     0
290
     0
176
     0
290
     1
176
     0
290
     1
176
     0
290
     0
176
     0
290
     0
176
     0
290
     0
176
     0
290
     0
176
     0
290
     0
176
     0
290
     0
176
     0
 90
       50
176
     0
 40
0.0
176
     0
 40
1.0
176
     0
 90
        0
176
     0
 62
    18
420
        0
176
     0
 90
       50
176
     0
 90
        3
176
     0
 62
     5
420
      255
176
     0
290
     0
176
     0
 90
       50
176
     0
 90
       50
176
     0
 90
       50
176
     0
290
     0
176
     0
 90
       50
176
     0
 62
   256
176
     0
 40
1.0
176
     0
 90
        2
176
     0
  1
strokes_ogs.tif
176
     0
290
     0
176
     0
 40
1.0
176
     0
 40
1.0
176
     0
  0
VISUALSTYLE
  5
37
102
{ACAD_REACTORS
330
29
102
}
330
29
100
AcDbVisualStyle
  2
Linepattern
 70
    14
177
     3
291
     1
 70
    58
 90
        2
176
     1
 90
        2
176
     1
 90
        0
176
     1
 90
        0
176
     1
 40
0.6
176
     1
 40
30.0
176
     1
 62
     7
420
 16777215
176
     1
 90
        1
176
     1
 90
        4
176
     1
 62
     7
176
     1
 62
   257
176
     1
 90
        7
176
     1
 90
        7
176
     1
 40
1.0
176
     1
 90
        8
176
     1
 62
     7
176
     1
 40
1.0
176
     1
 90
        1
176
     1
 90
        6
176
     1
 90
        2
176
     1
 62
     7
176
     1
 90
        5
176
     1
 90
        0
176
     1
 90
        0
176
     1
290
     0
176
     1
 90
        1
176
     1
 40
0.0
176
     1
 90
        0
176
     1
290
     0
176
     1
290
     1
176
     1
290
     1
176
     1
290
     0
176
     1
290
     0
176
     1
290
     0
176
     1
290
     0
176
     1
290
     0
176
     1
290
     0
176
     1
 90
       50
176
     1
 40
0.0
176
     1
 40
1.0
176
     1
 90
        0
176
     1
 62
    18
420
        0
176
     1
 90
       50
176
     1
 90
        3
176
     1
 62
     5
420
      255
176
     1
290
     0
176
     1
 90
       50
176
     1
 90
       50
176
     1
 90
       50
176
     1
290
     0
176
     1
 90
       50
176
     1
 62
   256
176
     0
 40
1.0
176
     0
 90
        2
176
     1
  1
strokes_ogs.tif
176
     1
290
     0
176
     1
 40
1.0
176
     1
 40
1.0
176
     1
  0
VISUALSTYLE
  5
40
102
{ACAD_REACTORS
330
29
102
}
330
29
100
AcDbVisualStyle
  2
OverhangOff
 70
    21
177
     3
291
     1
 70
    58
 90
        2
176
     0
 90
        2
176
     0
 90
        0
176
     0
 90
        0
176
     0
 40
0.6
176
     0
 40
30.0
176
     0
 62
     7
420
 16777215
176
     0
 90
        1
176
     0
 90
        4
176
     0
 62
     7
176
     0
 62
   257
176
     0
 90
        1
176
     0
 90
        1
176
     0
 40
1.0
176
     0
 90
        9
176
     2
 62
     7
176
     0
 40
1.0
176
     0
 90
        1
176
     0
 90
        6
176
     0
 90
        2
176
     0
 62
     7
176
     0
 90
        5
176
     0
 90
        0
176
     0
 90
        0
176
     0
290
     0
176
     0
 90
        1
176
     0
 40
0.0
176
     0
 90
        0
176
     0
290
     0
176
     0
290
     1
176
     0
290
     1
176
     0
290
     0
176
     0
290
     0
176
     0
290
     0
176
     0
290
     0
176
     0
290
     0
176
     0
290
     0
176
     0
 90
       50
176
     0
 40
0.0
176
     0
 40
1.0
176
     0
 90
        0
176
     0
 62
    18
420
        0
176
     0
 90
       50
176
     0
 90
        3
176
     0
 62
     5
420
      255
176
     0
290
     0
176
     0
 90
       50
176
     0
 90
       50
176
     0
 90
       50
176
     0
290
     0
176
     0
 90
       50
176
     0
 62
   256
176
     0
 40
1.0
176
     0
 90
        2
176
     0
  1
strokes_ogs.tif
176
     0
290
     0
176
     0
 40
1.0
176
     0
 40
1.0
176
     0
  0
VISUALSTYLE
  5
33
102
{ACAD_REACTORS
330
29
102
}
330
29
100
AcDbVisualStyle
  2
Realistic
 70
     8
177
     3
291
     0
 70
    58
 90
        2
176
     1
 90
        3
176
     1
 90
        0
176
     1
 90
        2
176
     1
 40
0.6
176
     1
 40
30.0
176
     1
 62
     7
420
 16777215
176
     1
 90
        0
176
     1
 90
        0
176
     1
 62
     7
176
     1
 62
   257
176
     1
 90
        1
176
     1
 90
        1
176
     1
 40
1.0
176
     1
 90
        8
176
     1
 62
   257
176
     1
 40
1.0
176
     1
 90
        1
176
     1
 90
        6
176
     1
 90
        2
176
     1
 62
     7
176
     1
 90
        3
176
     1
 90
        0
176
     1
 90
        0
176
     1
290
     0
176
     1
 90
       13
176
     1
 40
0.0
176
     1
 90
        0
176
     1
290
     0
176
     1
290
     1
176
     1
290
     1
176
     1
290
     0
176
     1
290
     0
176
     1
290
     0
176
     1
290
     0
176
     1
290
     0
176
     1
290
     0
176
     1
 90
       50
176
     1
 40
0.0
176
     1
 40
1.0
176
     1
 90
        0
176
     1
 62
    18
420
        0
176
     1
 90
       50
176
     1
 90
        3
176
     1
 62
     5
420
      255
176
     1
290
     0
176
     1
 90
       50
176
     1
 90
       50
176
     1
 90
       50
176
     1
290
     0
176
     1
 90
       50
176
     1
 62
   256
176
     0
 40
1.0
176
     0
 90
        2
176
     1
  1
strokes_ogs.tif
176
     1
290
     0
176
     1
 40
1.0
176
     1
 40
1.0
176
     1
  0
VISUALSTYLE
  5
3E
102
{ACAD_REACTORS
330
29
102
}
330
29
100
AcDbVisualStyle
  2
Shaded
 70
    27
177
     3
291
     0
 70
    58
 90
        2
176
     1
 90
        2
176
     1
 90
        1
176
     1
 90
        2
176
     1
 40
0.6
176
     1
 40
30.0
176
     1
 62
     7
420
 16777215
176
     1
 90
        0
176
     1
 90
        4
176
     1
 62
     7
176
     1
 62
   257
176
     1
 90
        1
176
     1
 90
        1
176
     1
 40
1.0
176
     1
 90
        8
176
     1
 62
   257
176
     1
 40
1.0
176
     1
 90
        1
176
     1
 90
        6
176
     1
 90
        2
176
     1
 62
     8
420
  7895160
176
     1
 90
        3
176
     1
 90
        0
176
     1
 90
        0
176
     1
290
     0
176
     1
 90
        5
176
     1
 40
0.0
176
     1
 90
        0
176
     1
290
     0
176
     1
290
     1
176
     1
290
     1
176
     1
290
     0
176
     1
290
     0
176
     1
290
     0
176
     1
290
     0
176
     1
290
     0
176
     1
290
     0
176
     1
 90
       50
176
     1
 40
0.0
176
     1
 40
1.0
176
     1
 90
        0
176
     1
 62
    18
420
        0
176
     1
 90
       50
176
     1
 90
        3
176
     1
 62
     5
420
      255
176
     1
290
     0
176
     1
 90
       50
176
     1
 90
       50
176
     1
 90
       50
176
     1
290
     0
176
     1
 90
       50
176
     1
 62
   256
176
     0
 40
1.0
176
     0
 90
        2
176
     1
  1
strokes_ogs.tif
176
     1
290
     0
176
     1
 40
1.0
176
     1
 40
1.0
176
     1
  0
VISUALSTYLE
  5
3D
102
{ACAD_REACTORS
330
29
102
}
330
29
100
AcDbVisualStyle
  2
Shaded with edges
 70
    26
177
     3
291
     0
 70
    58
 90
        2
176
     1
 90
        2
176
     1
 90
        1
176
     1
 90
        2
176
     1
 40
0.6
176
     1
 40
30.0
176
     1
 62
     7
420
 16777215
176
     1
 90
        1
176
     1
 90
        2
176
     1
 62
     7
176
     1
 62
   257
176
     1
 90
        2
176
     1
 90
        1
176
     1
 40
1.0
176
     1
 90
        8
176
     1
 62
   257
176
     1
 40
1.0
176
     1
 90
        1
176
     1
 90
        6
176
     1
 90
        2
176
     1
 62
     7
176
     1
 90
        3
176
     1
 90
        0
176
     1
 90
        0
176
     1
290
     0
176
     1
 90
        5
176
     1
 40
0.0
176
     1
 90
        0
176
     1
290
     0
176
     1
290
     1
176
     1
290
     1
176
     1
290
     0
176
     1
290
     0
176
     1
290
     0
176
     1
290
     0
176
     1
290
     0
176
     1
290
     0
176
     1
 90
       50
176
     1
 40
0.0
176
     1
 40
1.0
176
     1
 90
        0
176
     1
 62
    18
420
        0
176
     1
 90
       50
176
     1
 90
        3
176
     1
 62
     5
420
      255
176
     1
290
     0
176
     1
 90
       50
176
     1
 90
       50
176
     1
 90
       50
176
     1
290
     0
176
     1
 90
       50
176
     1
 62
   256
176
     0
 40
1.0
176
     0
 90
        2
176
     1
  1
strokes_ogs.tif
176
     1
290
     0
176
     1
 40
1.0
176
     1
 40
1.0
176
     1
  0
VISUALSTYLE
  5
3A
102
{ACAD_REACTORS
330
29
102
}
330
29
100
AcDbVisualStyle
  2
Shades of Gray
 70
    23
177
     3
291
     0
 70
    58
 90
        2
176
     1
 90
        2
176
     1
 90
        3
176
     1
 90
        0
176
     1
 40
0.6
176
     1
 40
30.0
176
     1
 62
     7
420
 16777215
176
     1
 90
        2
176
     1
 90
        2
176
     1
 62
     7
176
     1
 62
     7
176
     1
 90
        1
176
     1
 90
        1
176
     1
 40
40.0
176
     1
 90
        8
176
     1
 62
     7
176
     1
 40
1.0
176
     1
 90
        1
176
     1
 90
        6
176
     1
 90
        2
176
     1
 62
     7
176
     1
 90
        3
176
     1
 90
        0
176
     1
 90
        0
176
     1
290
     0
176
     1
 90
        1
176
     1
 40
0.0
176
     1
 90
        0
176
     1
290
     0
176
     1
290
     1
176
     1
290
     1
176
     1
290
     0
176
     1
290
     0
176
     1
290
     0
176
     1
290
     0
176
     1
290
     0
176
     1
290
     0
176
     1
 90
       50
176
     1
 40
0.0
176
     1
 40
1.0
176
     1
 90
        0
176
     1
 62
    18
420
        0
176
     1
 90
       50
176
     1
 90
        3
176
     1
 62
     5
420
      255
176
     1
290
     0
176
     1
 90
       50
176
     1
 90
       50
176
     1
 90
       50
176
     1
290
     0
176
     1
 90
       50
176
     1
 62
   256
176
     0
 40
1.0
176
     0
 90
        2
176
     1
  1
strokes_ogs.tif
176
     1
290
     0
176
     1
 40
1.0
176
     1
 40
1.0
176
     1
  0
VISUALSTYLE
  5
3B
102
{ACAD_REACTORS
330
29
102
}
330
29
100
AcDbVisualStyle
  2
Sketchy
 70
    24
177
     3
291
     0
 70
    58
 90
        1
176
     1
 90
        2
176
     1
 90
        2
176
     1
 90
        0
176
     1
 40
0.6
176
     1
 40
30.0
176
     1
 62
     7
420
 16777215
176
     1
 90
        2
176
     1
 90
        2
176
     1
 62
     7
176
     1
 62
     7
176
     1
 90
        1
176
     1
 90
        1
176
     1
 40
40.0
176
     1
 90
       11
176
     1
 62
     7
176
     1
 40
1.0
176
     1
 90
        1
176
     1
 90
        6
176
     1
 90
        2
176
     1
 62
     7
176
     1
 90
        6
176
     1
 90
        0
176
     1
 90
        0
176
     1
290
     0
176
     1
 90
        1
176
     1
 40
0.0
176
     1
 90
        0
176
     1
290
     0
176
     1
290
     1
176
     1
290
     1
176
     1
290
     0
176
     1
290
     0
176
     1
290
     0
176
     1
290
     0
176
     1
290
     0
176
     1
290
     0
176
     1
 90
       50
176
     1
 40
0.0
176
     1
 40
1.0
176
     1
 90
        0
176
     1
 62
    18
420
        0
176
     1
 90
       50
176
     1
 90
        3
176
     1
 62
     5
420
      255
176
     1
290
     0
176
     1
 90
       50
176
     1
 90
       50
176
     1
 90
       50
176
     1
290
     0
176
     1
 90
       50
176
     1
 62
   256
176
     0
 40
1.0
176
     0
 90
        2
176
     1
  1
strokes_ogs.tif
176
     1
290
     0
176
     1
 40
1.0
176
     1
 40
1.0
176
     1
  0
VISUALSTYLE
  5
36
102
{ACAD_REACTORS
330
29
102
}
330
29
100
AcDbVisualStyle
  2
Thicken
 70
    13
177
     3
291
     1
 70
    58
 90
        2
176
     1
 90
        2
176
     1
 90
        0
176
     1
 90
        0
176
     1
 40
0.6
176
     1
 40
30.0
176
     1
 62
     7
420
 16777215
176
     1
 90
        1
176
     1
 90
        4
176
     1
 62
     7
176
     1
 62
   257
176
     1
 90
        1
176
     1
 90
        1
176
     1
 40
1.0
176
     1
 90
       12
176
     1
 62
     7
176
     1
 40
1.0
176
     1
 90
        1
176
     1
 90
        6
176
     1
 90
        2
176
     1
 62
     7
176
     1
 90
        5
176
     1
 90
        0
176
     1
 90
        0
176
     1
290
     0
176
     1
 90
        1
176
     1
 40
0.0
176
     1
 90
        0
176
     1
290
     0
176
     1
290
     1
176
     1
290
     1
176
     1
290
     0
176
     1
290
     0
176
     1
290
     0
176
     1
290
     0
176
     1
290
     0
176
     1
290
     0
176
     1
 90
       50
176
     1
 40
0.0
176
     1
 40
1.0
176
     1
 90
        0
176
     1
 62
    18
420
        0
176
     1
 90
       50
176
     1
 90
        3
176
     1
 62
     5
420
      255
176
     1
290
     0
176
     1
 90
       50
176
     1
 90
       50
176
     1
 90
       50
176
     1
290
     0
176
     1
 90
       50
176
     1
 62
   256
176
     0
 40
1.0
176
     0
 90
        2
176
     1
  1
strokes_ogs.tif
176
     1
290
     0
176
     1
 40
1.0
176
     1
 40
1.0
176
     1
  0
VISUALSTYLE
  5
30
102
{ACAD_REACTORS
330
29
102
}
330
29
100
AcDbVisualStyle
  2
Wireframe
 70
     5
177
     3
291
     0
 70
    58
 90
        0
176
     1
 90
        2
176
     1
 90
        0
176
     1
 90
        0
176
     1
 40
0.6
176
     1
 40
30.0
176
     1
 62
     7
420
 16777215
176
     1
 90
        1
176
     1
 90
        4
176
     1
 62
     7
176
     1
 62
   257
176
     1
 90
        1
176
     1
 90
        1
176
     1
 40
1.0
176
     1
 90
        0
176
     1
 62
   257
176
     1
 40
1.0
176
     1
 90
        1
176
     1
 90
        6
176
     1
 90
        2
176
     1
 62
     7
176
     1
 90
        3
176
     1
 90
        0
176
     1
 90
        0
176
     1
290
     0
176
     1
 90
        1
176
     1
 40
0.0
176
     1
 90
        0
176
     1
290
     0
176
     1
290
     1
176
     1
290
     1
176
     1
290
     0
176
     1
290
     0
176
     1
290
     0
176
     1
290
     0
176
     1
290
     0
176
     1
290
     0
176
     1
 90
       50
176
     1
 40
0.0
176
     1
 40
1.0
176
     1
 90
        0
176
     1
 62
    18
420
        0
176
     1
 90
       50
176
     1
 90
        3
176
     1
 62
     5
420
      255
176
     1
290
     0
176
     1
 90
       50
176
     1
 90
       50
176
     1
 90
       50
176
     1
290
     0
176
     1
 90
       50
176
     1
 62
   256
176
     0
 40
1.0
176
     0
 90
        2
176
     1
  1
strokes_ogs.tif
176
     1
290
     0
176
     1
 40
1.0
176
     1
 40
1.0
176
     1
  0
VISUALSTYLE
  5
3C
102
{ACAD_REACTORS
330
29
102
}
330
29
100
AcDbVisualStyle
  2
X-Ray
 70
    25
177
     3
291
     0
 70
    58
 90
        2
176
     1
 90
        2
176
     1
 90
        1
176
     1
 90
        1
176
     1
 40
0.5
176
     1
 40
30.0
176
     1
 62
     7
420
 16777215
176
     1
 90
        1
176
     1
 90
        0
176
     1
 62
     7
176
     1
 62
   257
176
     1
 90
        1
176
     1
 90
        1
176
     1
 40
1.0
176
     1
 90
        8
176
     1
 62
     7
176
     1
 40
1.0
176
     1
 90
        1
176
     1
 90
        6
176
     1
 90
        2
176
     1
 62
     7
176
     1
 90
        3
176
     1
 90
        0
176
     1
 90
        0
176
     1
290
     0
176
     1
 90
       13
176
     1
 40
0.0
176
     1
 90
        0
176
     1
290
     0
176
     1
290
     1
176
     1
290
     1
176
     1
290
     0
176
     1
290
     0
176
     1
290
     0
176
     1
290
     0
176
     1
290
     0
176
     1
290
     0
176
     1
 90
       50
176
     1
 40
0.0
176
     1
 40
1.0
176
     1
 90
        0
176
     1
 62
    18
420
        0
176
     1
 90
       50
176
     1
 90
        3
176
     1
 62
     5
420
      255
176
     1
290
     0
176
     1
 90
       50
176
     1
 90
       50
176
     1
 90
       50
176
     1
290
     0
176
     1
 90
       50
176
     1
 62
   256
176
     0
 40
1.0
176
     0
 90
        2
176
     1
  1
strokes_ogs.tif
176
     1
290
     0
176
     1
 40
1.0
176
     1
 40
1.0
176
     1
  0
DICTIONARYVAR
  5
AF
102
{ACAD_REACTORS
330
AA
102
}
330
AA
100
DictionaryVariables
280
     0
  1
1:1
  0
DICTIONARYVAR
  5
AC
102
{ACAD_REACTORS
330
AA
102
}
330
AA
100
DictionaryVariables
280
     0
  1
STANDARD
  0
DICTIONARYVAR
  5
AB
102
{ACAD_REACTORS
330
AA
102
}
330
AA
100
DictionaryVariables
280
     0
  1
STANDARD
  0
DICTIONARYVAR
  5
AD
102
{ACAD_REACTORS
330
AA
102
}
330
AA
100
DictionaryVariables
280
     0
  1
Imperial24
  0
DICTIONARYVAR
  5
AE
102
{ACAD_REACTORS
330
AA
102
}
330
AA
100
DictionaryVariables
280
     0
  1
Imperial24
  0
DICTIONARY
  5
1A
330
19
100
AcDbDictionary
280
     1
281
     1
  3
BUMPTILE
360
1C
  3
DIFFUSETILE
360
1B
  3
OPACITYTILE
360
1F
  3
REFLECTIONTILE
360
1E
  3
REFRACTIONTILE
360
20
  3
SPECULARTILE
360
1D
  0
DICTIONARY
  5
12
330
11
100
AcDbDictionary
280
     1
281
     1
  3
BUMPTILE
360
14
  3
DIFFUSETILE
360
13
  3
OPACITYTILE
360
17
  3
REFLECTIONTILE
360
16
  3
REFRACTIONTILE
360
18
  3
SPECULARTILE
360
15
  0
DICTIONARY
  5
22
330
21
100
AcDbDictionary
280
     1
281
     1
  3
BUMPTILE
360
24
  3
DIFFUSETILE
360
23
  3
OPACITYTILE
360
27
  3
REFLECTIONTILE
360
26
  3
REFRACTIONTILE
360
28
  3
SPECULARTILE
360
25
  0
DICTIONARY
  5
B0
330
65
100
AcDbDictionary
280
     1
281
     1
  3
ACAD_ROUNDTRIP_2008_TABLESTYLE_CELLSTYLEMAP
360
B1
  0
XRECORD
  5
1C
102
{ACAD_REACTORS
330
1A
102
}
330
1A
100
AcDbXrecord
280
     1
270
     1
271
     1
  0
XRECORD
  5
1B
102
{ACAD_REACTORS
330
1A
102
}
330
1A
100
AcDbXrecord
280
     1
270
     1
271
     1
  0
XRECORD
  5
1F
102
{ACAD_REACTORS
330
1A
102
}
330
1A
100
AcDbXrecord
280
     1
270
     1
271
     1
  0
XRECORD
  5
1E
102
{ACAD_REACTORS
330
1A
102
}
330
1A
100
AcDbXrecord
280
     1
270
     1
271
     1
  0
XRECORD
  5
20
102
{ACAD_REACTORS
330
1A
102
}
330
1A
100
AcDbXrecord
280
     1
270
     1
271
     1
  0
XRECORD
  5
1D
102
{ACAD_REACTORS
330
1A
102
}
330
1A
100
AcDbXrecord
280
     1
270
     1
271
     1
  0
XRECORD
  5
14
102
{ACAD_REACTORS
330
12
102
}
330
12
100
AcDbXrecord
280
     1
270
     1
271
     1
  0
XRECORD
  5
13
102
{ACAD_REACTORS
330
12
102
}
330
12
100
AcDbXrecord
280
     1
270
     1
271
     1
  0
XRECORD
  5
17
102
{ACAD_REACTORS
330
12
102
}
330
12
100
AcDbXrecord
280
     1
270
     1
271
     1
  0
XRECORD
  5
16
102
{ACAD_REACTORS
330
12
102
}
330
12
100
AcDbXrecord
280
     1
270
     1
271
     1
  0
XRECORD
  5
18
102
{ACAD_REACTORS
330
12
102
}
330
12
100
AcDbXrecord
280
     1
270
     1
271
     1
  0
XRECORD
  5
15
102
{ACAD_REACTORS
330
12
102
}
330
12
100
AcDbXrecord
280
     1
270
     1
271
     1
  0
XRECORD
  5
24
102
{ACAD_REACTORS
330
22
102
}
330
22
100
AcDbXrecord
280
     1
270
     1
271
     1
  0
XRECORD
  5
23
102
{ACAD_REACTORS
330
22
102
}
330
22
100
AcDbXrecord
280
     1
270
     1
271
     1
  0
XRECORD
  5
27
102
{ACAD_REACTORS
330
22
102
}
330
22
100
AcDbXrecord
280
     1
270
     1
271
     1
  0
XRECORD
  5
26
102
{ACAD_REACTORS
330
22
102
}
330
22
100
AcDbXrecord
280
     1
270
     1
271
     1
  0
XRECORD
  5
28
102
{ACAD_REACTORS
330
22
102
}
330
22
100
AcDbXrecord
280
     1
270
     1
271
     1
  0
XRECORD
  5
25
102
{ACAD_REACTORS
330
22
102
}
330
22
100
AcDbXrecord
280
     1
270
     1
271
     1
  0
CELLSTYLEMAP
  5
B1
102
{ACAD_REACTORS
330
B0
102
}
330
B0
100
AcDbCellStyleMap
 90
        3
300
CELLSTYLE
  1
TABLEFORMAT_BEGIN
 90
        5
170
     1
 91
        0
 92
    32768
 62
   257
 93
        1
300
CONTENTFORMAT
  1
CONTENTFORMAT_BEGIN
 90
        0
 91
        0
 92
      512
 93
        0
300

 40
0.0
140
1.0
 94
        5
 62
     0
340
55
144
0.25
309
CONTENTFORMAT_END
171
     0
 94
        0
309
TABLEFORMAT_END
  1
CELLSTYLE_BEGIN
 90
        1
 91
        1
300
_TITLE
309
CELLSTYLE_END
300
CELLSTYLE
  1
TABLEFORMAT_BEGIN
 90
        5
170
     1
 91
        0
 92
        0
 62
   257
 93
        1
300
CONTENTFORMAT
  1
CONTENTFORMAT_BEGIN
 90
        0
 91
        0
 92
      512
 93
        0
300

 40
0.0
140
1.0
 94
        5
 62
     0
340
55
144
0.18
309
CONTENTFORMAT_END
171
     0
 94
        0
309
TABLEFORMAT_END
  1
CELLSTYLE_BEGIN
 90
        2
 91
        1
300
_HEADER
309
CELLSTYLE_END
300
CELLSTYLE
  1
TABLEFORMAT_BEGIN
 90
        5
170
     1
 91
        0
 92
        0
 62
   257
 93
        1
300
CONTENTFORMAT
  1
CONTENTFORMAT_BEGIN
 90
        0
 91
        0
 92
      512
 93
        0
300

 40
0.0
140
1.0
 94
        2
 62
     0
340
55
144
0.18
309
CONTENTFORMAT_END
171
     0
 94
        0
309
TABLEFORMAT_END
  1
CELLSTYLE_BEGIN
 90
        3
 91
        2
300
_DATA
309
CELLSTYLE_END
  0
ENDSEC
  0
EOF
