  0
SECTION
  2
HEADER
  9
$ACADVER
  1
AC1009
  9
$LIMMIN
 10
 -377.8075
 20
 -488.9325
  9
$LIMMAX
 10
  377.8075
 20
  488.9325
  9
$EXTMIN
 10
-95.0738526
 20
-439.5575181
  9
$EXTMAX
 10
57.32614741
 20
379.5924819
  0
ENDSEC
  0
SECTION
  2
TABLES
  0
TABLE
  2
LTYPE
 70
     8
  0
LTYPE
  2
CONTINUOUS
 70
    64
  3
Solid line
 72
    65
 73
     0
 40
           0
  0
LTYPE
  2
LTYPE_1
 70
    64
  3
...................
 72
    65
 73
     2
 40
     3.05583
 49
           0
 49
    -3.05583
  0
LTYPE
  2
LTYPE_2
 70
    64
  3
. . . . . . . . . .
 72
    65
 73
     2
 40
     6.11166
 49
           0
 49
    -6.11166
  0
LTYPE
  2
LTYPE_3
 70
    64
  3
-   -   -   -   -
 72
    65
 73
     2
 40
     24.4466
 49
     6.11166
 49
     -18.335
  0
LTYPE
  2
LTYPE_4
 70
    64
  3
--  --  --  --  --
 72
    65
 73
     2
 40
     24.4466
 49
     12.2233
 49
    -12.2233
  0
LTYPE
  2
LTYPE_5
 70
    64
  3
-- . -- . -- . --
 72
    65
 73
     4
 40
     24.4466
 49
     12.2233
 49
    -6.11166
 49
           0
 49
    -6.11166
  0
LTYPE
  2
LTYPE_6
 70
    64
  3
---- . ---- . ----
 72
    65
 73
     4
 40
     36.6699
 49
     24.4466
 49
    -6.11166
 49
           0
 49
    -6.11166
  0
LTYPE
  2
LTYPE_7
 70
    64
  3
--- . --- . --- . ---
 72
    65
 73
     4
 40
     36.6699
 49
      18.335
 49
    -6.11166
 49
     6.11166
 49
    -6.11166
  0
ENDTAB
  0
TABLE
  2
LAYER
 70
     2
  0
LAYER
  2
0
 70
     0
 62
     7
  6
CONTINUOUS
  0
LAYER
  2
Visible_lines
 70
     0
 62
     7
  6
CONTINUOUS
  0
ENDTAB
  0
TABLE
  2
STYLE
 70
     1
  0
STYLE
  2
STANDARD
 70
     0
 40
         0
 41
         1
 50
         0
 71
     0
 42
       0.2
  3
txt
  4

  0
ENDTAB
  0
TABLE
  2
VIEW
 70
     0
  0
ENDTAB
  0
ENDSEC
  0
SECTION
  2
BLOCKS
  0
ENDSEC
  0
SECTION
  2
ENTITIES
  0
LINE
  8
Visible_lines
 62
7
 10
-95.0738526
 20
-58.55751812
 11
-80.59299962
 21
-104.4244166
  0
ARC
  8
Visible_lines
 62
7
 10
-91.18991456
 20
-107.7700181
 40
   11.1125
 50
       270
 51
17.52167133
  0
ARC
  8
Visible_lines
 62
7
 10
-74.14921492
 20
-161.7450181
 40
   11.1125
 50
17.52167133
 51
        90
  0
LINE
  8
Visible_lines
 62
7
 10
-44.27385261
 20
379.5924819
 11
-95.0738526
 21
-14.10751812
  0
ARC
  8
Visible_lines
 62
7
 10
94.52195188
 20
-17.82984572
 40
     152.4
 50
173.3423124
 51
196.0581858
  0
LINE
  8
Visible_lines
 62
7
 10
25.21343902
 20
-439.5575181
 11
57.32614741
 21
-439.5575181
  0
LINE
  8
Visible_lines
 62
7
 10
57.32614741
 20
-439.5575181
 11
-51.93159541
 21
-59.9857289
  0
LINE
  8
Visible_lines
 62
7
 10
-91.18991456
 20
-150.6325181
 11
-74.14921492
 21
-150.6325181
  0
LINE
  8
Visible_lines
 62
7
 10
-63.55229997
 20
-158.3994166
 11
25.21343902
 21
-439.5575181
  0
LINE
  8
Visible_lines
 62
7
 10
-91.18991456
 20
-118.8825181
 11
-91.18991456
 21
-150.6325181
  0
LINE
  8
Visible_lines
 62
7
 10
-95.0738526
 20
-14.10751812
 11
-95.0738526
 21
-58.55751812
  0
LINE
  8
Visible_lines
 62
7
 10
-44.27385261
 20
379.5924819
 11
-12.52385261
 21
379.5924819
  0
LINE
  8
Visible_lines
 62
7
 10
-12.52385261
 20
379.5924819
 11
-56.85034467
 21
-0.1610076898
  0
POINT
  8
Visible_lines
 62
7
 10
         0
 20
         0
  0
ENDSEC
  0
EOF
